Song name
# A B C D E F G H I J K L M N O P Q R S T U V W X Y Z

Deadmau5 - Some Chords tab

e|--------------------------------------------------------------------------|
B|--------------------------------------------------------------------------|
G|--------------------------------------------------------------------------|
D|10-----------------11-----------------------------------------------------|
A|----12---12----14---------------------------------------------------------|
D|--------------------------------------------------------------------------|

Repeat three times then


e|--------------------------------------------------------------------------|
B|--------------------------------------------------------------------------|
G|--------------------------------------------------------------------------|
D|10------------12---11-----------------------------------------------------|
A|----12---12---------------------------------------------------------------|
D|--------------------------------------------------------------------------|





-DJKFlux @ http://www.youtube.com/user/DJKFluxOfficial
Tap to rate this tab
# A B C D E F G H I J K L M N O P Q R S T U V W X Y Z