Song name
# A B C D E F G H I J K L M N O P Q R S T U V W X Y Z

Deadmau5 - Strobe tab

This is the main part which comes in after the drop. For the intro check out beesrule's tab.


E|------9--11------------------------9--11---------------------9--14--|
B|--12-------------9-------------9--------------9---------------------|
G|-------------11-------------11------------11-------------11---------|
D|--------------------------------------------------------------------|
A|--------------------------------------------------------------------|
E|--------------------------------------------------------------------|

----------------------9--11---------|
------9-----------9--------------9--|
--11-----------11------------11-----|
------------------------------------|
------------------------------------|
------------------------------------|
Tap to rate this tab
# A B C D E F G H I J K L M N O P Q R S T U V W X Y Z