Song name
# A B C D E F G H I J K L M N O P Q R S T U V W X Y Z

Deadmau5 - Moar Ghosts N Stuff tab

Hello Ultimate Guitar communitty. (Community?)
I thought this would sound awesome on guitar, so I checked out a piano vid
(link below) and just transcribed the notes into tabs. The song is very
repetitive so I'll just post the basics. The intro will be in three
different positions. Anyways, enough blather.
NOTE: THIS SONG IS NOT THE HARD INTRO VERSION BUT RATHER THE ORIGINAL VERSION.

Legend: h= Hammer-on
p= Pull-off
*=Important note
[]= Reapeat specific section
X#= Repeat so many times
x= Scratch
/= Slide up
\= Slide down
+= Notes as power chord
,= Seperates notes in relation to tabs.


Song Key: F# Major

Notes; Intro: A#+F, F, G#, A#, C#, F, G#, A#. A#+F, F, G#, A#, C#, F, G#, A#.

POSITION 1: (My personal favourite)
Intro (Begins with 18 seconds of dum beats)
e|------------------------------------------------     X25-|
B|-----------11-14------11-----------11-14------11---------|
G|--10--10-13------10-13----10--10h13------10-13-----------|
D|--8-----------------------8------------------------------|
A|---------------------------------------------------------|
E|---------------------------------------------------------|

POSITION 2: (A little more bass sound)
Intro
e|----------------------------------------------       X25-|
B|---------------------------------------------------------|
G|----------15-18------15----------15-18------15-----------|
D|--15-15-18------15-18----15-15h18------15-18-------------|
A|--13---------------------13------------------------------|
E|---------------------------------------------------------|

POSITION 3: (Kind of slurry, beginner style)
Intro
e|-------6-9----6-------6-9----6                       X25-|
B|--6-6-9----6-9---6-6-9----6-9----------------------------|
G|--3--------------3---------------------------------------|
D|---------------------------------------------------------|
A|---------------------------------------------------------|
E|---------------------------------------------------------|
*DO NOT PLAY ALL THREE POSITIONS IN A ROW! ONLY PLAY 1 OF YOUR CHOICE FOR 25 TIMES AND 
THEN CONTINUE TO THE MIDDLE.

Middle (Change up in play)
e|---------------[------------------------------------------]  X8
B|---------------[-----11-14------11-----------11-14------11]
G|--10~-8-6--10--[10-13------10-13----10--10h13------10-13--]
D|--8~--6-4--8---[--------------------8---------------------]
A|---------------[------------------------------------------]
E|---------------[------------------------------------------]
Notes; Middle: A#+F, G#+D#, F#+C#, D#+A#. A#+F, F, G#, A#, C#, F, G#, A#.

Solo
e|--x-14-16/21-23-18--------21-20-18-16/18-16/18-20-21p18------|
B|--x----------------21\20-------------------------------21p18-|
G|--x----------------------------------------------------------|
D|--x----------------------------------------------------------|
A|--x----------------------------------------------------------|
E|--x----------------------------------------------------------|

e|-----21-23-18--------21-20-16/18-16/18----------|
B|--21----------21\20--------------------18-16-14-|
G|------------------------------------------------|
D|------------------------------------------------|
A|------------------------------------------------|
E|------------------------------------------------|

*I didn't make notes for the solo (it takes a long time) so if you want to, remember the 
song is in the key of F# Major. You should be fine knowing that.

End
*I think you can figure this out for yourself. It's really just a combo of the Intro and 
first part of the Middle (not in the brackets).

Credit:
-LiveMau5 for his paino video which I transcribed tabs from.
--http://www.youtube.com/watch?v=7ZjrYcO9Qog
-Deadmau5 for his song Moar Ghosts N Stuff off the album "For Lack of a Better Name"
--http://www.youtube.com/watch?v=bXWk-aInsow
Tap to rate this tab
# A B C D E F G H I J K L M N O P Q R S T U V W X Y Z