Song name
# A B C D E F G H I J K L M N O P Q R S T U V W X Y Z

Deadmau5 - The Veldt tab

Awesome song! Enjoy!

95% Accurate but if not, send me a comment and I'll add the corrections!

Artist: DeadMaus5 (feat. Chris James)
Song: The Veldt
Album: The Veldt EP
Tuning: Standard

Lead Guitar/Main Riff

e |---------------------------------|
B |---------------------------------|
G |-------------------------7--6----|
D |-6--7----11--9--11--9--0------7--|
A |------0--------------------------|   
E |---------------------------------|

e |-------------------------------------|
B |-------------------------------------|
G |----------------------------7--6-----|
D |--6--7---11--9--7--6--11--0-------7--|
A |-------0-----------------------------|       
E |-------------------------------------|

Rhythm Guitar

e |-0---0---2---0-----------|
B |-0---0---3---2-----------|
G |-1---2---2---2-----------|
D |-2---2---0---2-----------|
A |-2---0---0---0-----------|   
E |-x---x---x---x-----------|


e |--2---0---0-------------|
B |--3---2---0-------------|
G |--2---2---2-------------|
D |--0---2---2-------------|
A |--0---0---0-------------|    
E |--x---x---x-------------|

Verse 1

Happy life with the machines scattered around the room.
Look what they made; they made it for me
Happy technology!
Outside the Lions roam feeding on remains
We'll never leave, look at us now;
So in love with the way we are here

Chorus

The world that the children made
The world that the children made, here!
The world that the children made, here!
The world that the children made.

Verse 2

Every night they rock us to sleep, digital family!
Is it real? Or is it a dream? Can you believe the machines?
Outside, the beating sun, can you hear the screams?
We'll never leave, look at us now.
So in love with the way we are here!

Chorus
Tap to rate this tab
# A B C D E F G H I J K L M N O P Q R S T U V W X Y Z