Song name
# A B C D E F G H I J K L M N O P Q R S T U V W X Y Z

Deadmau5 - Raise Your Weapon tab

Title: Raise your weapon
Artist: Deadmau5
Tempo = 128

Legend
L - tied note
x - dead note
h - hammer on/pull off
b - bend
s - slide
~ - vibrato
g - ghost note
> - accentuated note
t - trill
M - palm mute
. - staccato
P - popping (bass)
S - slapping (bass)
+ - tapping
W - wide vibrato
< - fade in
w - whammy bar
= - tremolo picking
v - brush up
^ - brush down
V - pick stroke up
n - pick stroke down

                                                          ^     
E |--4----|----------------------------|-------|-------|-------|
B |--2----|-----------------4L----4----|--4----|-------|--2----|
G |--4----|--3L----------3--1L----1----|--4----|--4----|--3----|
D |-------|----------------------------|--2----|-------|--4----|
A |--4----|--4L----------4-------------|-------|-------|-------|
E |-------|----------------------------|-------|-------|-------|

                                                                          
----------------------------|-------|----------------------------|--4----|
--2L----------2--4L----4----|--4----|--0L----------0--4L----4----|--5----|
-----------------4L----4----|-------|-----------------3L----3----|--4----|
-----------------6L----6----|--6----|-----------------4L----4----|-------|
----------------------------|-------|----------------------------|-------|
----------------------------|--4----|----------------------------|-------|

                                               ^     
-----------------4L----4----|-------|-------|-------|
-----------------2L----2----|--4----|-------|--2----|
--3L----------3-------------|--4----|--4----|--3----|
-----------------4L----4----|--6----|-------|--4----|
----------------------------|-------|-------|-------|
----------------------------|-------|-------|-------|

                                               ^               ^             
----------------------------|-------|-------||------|-------|-------|-------|
--2L----------2--4L----4----|--4----|--5----||-0----|-------|--0----|-------|
-----------------4L----4----|-------|-------||o4----|-------|--8----|-------|
-----------------6L----6----|--6----|-------||o6----|-------|--9----|-------|
----------------------------|--4----|-------||-6----|-------|--9----|-------|
----------------------------|-------|-------||------|-------|-------|-------|

  ^               ^
--0----|-------|--0----|-------|----------------------------|
--7----|-------|--9----|-------|--0--------0--------0-------|
--6----|-------|--8----|-------|--4--------4--------4-------|
--8----|-------|--9----|-------|--6--------6--------6-------|
-------|-------|--7----|-------|--6-----6--------6----------|
-------|-------|-------|-------|----------------------------|


----------------------------|----------------------------|
-----0----------------------|--0--------0--------0-------|
-----4--------4-----4-------|--8--------8--------8-------|
-----6--------6-----6-------|--9--------9--------9-------|
--6--------6----------------|--9-----9--------9----------|
----------------------------|----------------------------|


----------------------------|--0--------0--------0-------|
-----0----------------------|--2--------2--------2-------|
-----8--------8-----8-------|--3--------3--------3-------|
-----9--------9-----9-------|--4--------4--------4-------|
--9--------9----------------|--4-----4--4-----4--4-------|
----------------------------|----------------------------|


-----0----------------------|--0----|---|||
-----2----------------------|--0----|---|||
-----3--------3-----3-------|--1----|--o|||
-----4--------4-----4-------|--1----|--o|||
--4--4-----4----------------|--2----|---|||
----------------------------|--0----|---|||

Tap to rate this tab
# A B C D E F G H I J K L M N O P Q R S T U V W X Y Z