Song name
# A B C D E F G H I J K L M N O P Q R S T U V W X Y Z

Deadmau5 - Some Chords tab

E|--------------------------------------|
B|--------------------------------------|
G|--------------------------------------|
D|--------------------------------------|
A|-----6-----5-----2-------2-----/4-----|
E|-----7-----7-----3-------3-----/5-----|


E|--------------------------------------|
B|--------------------------------------|
G|--------------------------------------|
D|--------------------------------------|
A|-----6-----5-----2-------2-----/4-----|
E|-----7-----7-----3-------3-----/5-----|



E|--------------------------------------|
B|--------------------------------------|
G|--------------------------------------|
D|--------------------------------------|
A|-----6-----5-----2-------2-----/4-----|
E|-----7-----7-----3-------3-----/5-----|



E|--------------------------------------|
B|--------------------------------------|
G|--------------------------------------|
D|--------------------------------------|
A|-----6-----5-----2-------2-----/4-----|
E|-----7-----7-----3-------3-----/5-----|
Tap to rate this tab
# A B C D E F G H I J K L M N O P Q R S T U V W X Y Z