Song name
# A B C D E F G H I J K L M N O P Q R S T U V W X Y Z

Deadmau5 - The Veldt tab

THE MAIN PART

e|-------------------------------------------------------------|
B|---------------2--0--2--0-------3---2------------------------|
G|-1----2----1------------2---2---4---2---2--------------------|
D|-2----2----2---4--4--4----------4---2---2--------------------|
A|------0-----------------0---0---2---0---0--------------------|
E|-0---------0---2--2--2---------------------------------------|


e|-------------------------------------------------------------|
B|----------------------------2---3---2------------------------|
G|-1--------1---2--4--2--1----2---4---2---2--------------------|
D|-2----0-------4--4--4--2--------4---2---2--------------------|
A|------2---2-----------------0---2---0---0--------------------|
E|-0---------------------0-------------------------------------|


THE ARPEGGIATED PART

e|-----------2------------2-----------2-----------5-----4---------7---|
B|-----5------------5-----------5-----------5-----------------5-------|
G|-2-4---2-4----2-4---2-4---2-4---2-4---2-4---2-4---2-4---2-4---4-----|
D|--------------------------------------------------------------------|
A|--------------------------------------------------------------------|
E|--------------------------------------------------------------------|
Tap to rate this tab
# A B C D E F G H I J K L M N O P Q R S T U V W X Y Z