Deadsoul Tribe - Love Of Hate tab

D----------------------------------------------------------------------------|
A----------------------------------------------------------------------------|        *P.M
F----------------------------------------------------------------------------|
C----------------------------------------------------------------------------|11x     () Trill
G-----12--13----10-12---8----10-----7-(8)------------------------------------|
C-0-0----0----0-------0----0-----0-------------------------------------------|         x dead note
  * *    *    *       *    *     *

D----------------------------------------------------------------------------|
A----------------------------------------------------------------------------|
F----------------------------------------------------------------------------|
C----------------------------------------------------------------------------|1x
G----------------------------------------------------------------------------|
C-0-0-7--0-8--0--5--7--0-3---0--5--0--2-(3)-----------------------------------


D----------------------------------------------------------------------------|
A----------------------------------------------------------------------------|
F----------------------------------------------------------------------------|
C----------------------------------------------------------------------------|2x 
G-2--3-----------------------------------------------------------------------|
C-0--1---(6)-0-0-0-0--(3)-0-0------------------------------------------------|
             * * * *

D----------------------------------------------------------------------------|
A----------------------------------------------------------------------------|
F----------------------------------------------------------------------------|
C----------------------------------------------------------------------------|1x 
G-2--3-----------------------------------------------------------------------|
C-0--1---(6)-0-0-0-0--(3)-0-0-0-0-(3)-0-0-0-0-(2)-----------------------------|
             * * * *      * * * *     * * * *

D----------------------------------------------------------------------------|
A----------------------------------------------------------------------------|
F----------------------------------------------------------------------------|
C----------------------------------------------------------------------------|6x last 2 times
G----------------------------------------------------------------------------| 1st guitar palm
C-0-0-0-0-0-0-0-0-(3)--------------------------------------------------------| muted 2nd clear
  * * * * * * * * 



D----------------------------------------------------------------------------|
A----------------------------------------------------------------------------|
F----------------------------------------------------------------------------|
C----------------------------------------------------------------------------|2x 
G-2--3-----------------------------------------------------------------------|
C-0--1---(6)-0-0-0-0--(3)-0-0------------------------------------------------|
             * * * *

D----------------------------------------------------------------------------|
A----------------------------------------------------------------------------|
F----------------------------------------------------------------------------|
C----------------------------------------------------------------------------|1x 
G-2--3-----------------------------------------------------------------------|
C-0--1---(6)-0-0-0-0--(3)-0-0-0-0-(3)-0-0-0-0-(2)-----------------------------|
             * * * *      * * * *     * * * *

D----------------------------------------------------------------------------|
A----------------------------------------------------------------------------|
F----------------------------------------------------------------------------|
C----------------------------------------------------------------------------|11x 
G----------------------------------------------------------------------------|
C-0-0-0-0-0-0-0-(6)----------------------------------------------------------|
  * * * * * * *
D----------------------------------------------------------------------------|
A----------------------------------------------------------------------------|
F----------------------------------------------------------------------------|
C----------------------------------------------------------------------------|2x 
G-2--3-----------------------------------------------------------------------|
C-0--1---(6)-0-0-0-0--(3)-0-0------------------------------------------------|
             * * * *

D----------------------------------------------------------------------------|
A----------------------------------------------------------------------------|
F----------------------------------------------------------------------------|
C----------------------------------------------------------------------------|1x 
G-2--3-----------------------------------------------------------------------|
C-0--1---(6)-0-0-0-0--(3)-0-0-0-0-(3)-0-0-0-0-(2)-----------------------------|
             * * * *      * * * *     * * * *


D----------------------------------------------------------------------------|
A----------------------------------------------------------------------------|
F-1------0-1/2-/-13--13--x-x--14-14------------------------------------------|
C-1------0-1/2-/-13--13--x-x--14-14------------------------------------------|1x 
G-1------0-1/2-/-13--13--x-x--14-14------------------------------------------|
C-1------0-1/2-/-13--13--x-x--14-14------------------------------------------|


D----------------------------------------------------------------------------|
A----------------------------------------------------------------------------|
F----------------------------------------------------------------------------|
C----------------------------------------------------------------------------|2x 
G-2--3-----------------------------------------------------------------------|
C-0--1---(6)-0-0-0-0--(3)-0-0------------------------------------------------|
             * * * *

D----------------------------------------------------------------------------|
A----------------------------------------------------------------------------|
F----------------------------------------------------------------------------|
C----------------------------------------------------------------------------|1x 
G-2--3-----------------------------------------------------------------------|
C-0--1---(6)-0-0-0-0--(3)-0-0-0-0-(3)-0-0-0-0-(2)----------------------------|



D----------------------------------------------------------------------------|
A----------------------------------------------------------------------------|        
F----------------------------------------------------------------------------|
C----------------------------------------------------------------------------|11x     
G-----12--13----10-12---8----10-----7-(8)------------------------------------|
C-0-0----0----0-------0----0-----0-------------------------------------------|         
  * *    *    *       *    *     *

D----------------------------------------------------------------------------|
A----------------------------------------------------------------------------|
F----------------------------------------------------------------------------|
C----------------------------------------------------------------------------|1x
G----------------------------------------------------------------------------|
C-0-0-7--0-8--0--5--7--0-3---0--5--0--2-(3)-----------------------------------

First tab i hope its good enough :) any questions mail me limontus@hotmail.com
  
Tap to rate this tab
 
# A B C D E F G H I J K L M N O P Q R S T U V W X Y Z