Song name
# A B C D E F G H I J K L M N O P Q R S T U V W X Y Z

Deadstar Assembly - Breathe For Me tab

Chorus
w/dist
D|------------------------------------------------------------|
A|------------------------------------------------------------|
F|---5---555-----------------7---777--------------------------|
C|---5---555---5--55--5555---7---777---7--77--7777------------|
G|---3---333---5--55--5555---5---555---7--77--7777------------|
C|-------------5--55--5555-------------7--77--7777------------|

D|-----------------------------------------------------------|
A|-----------------------------------------------------------|
F|---5---555-----------------7-------------------------------|
C|---5---555---5--55--5555---7--hold ------------------------|
G|---3---333---5--55--5555---5---out-------------------------|
C|-------------5--55--5555-----------------------------------|


That's basically it....there sounds like there's a little bit of guitar on the clean 
during the verse, but it's not very audible.
Tap to rate this tab
 
# A B C D E F G H I J K L M N O P Q R S T U V W X Y Z