Song name
# A B C D E F G H I J K L M N O P Q R S T U V W X Y Z

Deadstar Assembly - Dejected tab

Band: Deadstar Assembly
Song: Dejected

Drop D (D,A,D,G,B,E)

Intro/Outro w/dist *Listen to song for rhythms*
E|-----------------------------------------------------------------------|
B|-----------------------------------------------------------------------|
G|-----------------------------------------------------------------------|
D|-0-0---0000--6\----0-0--0000--5\----0-0--0000--6\---0-0--0-3-4-3-0-1---|
A|-0-0---0000--6\----0-0--0000--5\----0-0--0000--6\---0-0--0-3-4-3-0-1---|
D|-0-0---0000--6\----0-0--0000--5\----0-0--0000--6\---0-0--0-3-4-3-0-1---|

Verse
E|---------------------------------|          E|--------------------|
B|---------------------------------|          B|--------------------|
G|---------------------------------|          G|--------------------|
D|-----------------------8--10-----|          D|--44444333----------|
A|-----------------------8--10-----|          A|--44444333----------|
D|--10-000-10-000-10-00--8--10-----| x3 then  D|--44444333----------|
       :::    :::    ::

Pre-Chorus (not too sure about this part)
E|------------------------------------------------------------------------|
B|------------------------------------------------------------------------|
G|------------------------------------------------------------------------|
D|---0000300---03044433--0000300--03066633--0000300-03044433-0000300------|
A|---0000300---03044433--0000300--03066633--0000300-03044433-0000300------|
D|---0000300---03044433--0000300--03066633--0000300-03044433-0000300------|

E|-------------|
B|-------------|
G|-------------|
D|--0-666-888--|
A|--0-666-888--|
D|--0-666-888--|

Chorus
E|---------------------------------------|
B|---------------------------------------|
G|---------------------------------------|
D|-0-0-0000-66666666-111111-33344310-----|
A|-0-0-0000-66666666-111111-33344310-----|
D|-0-0-0000-66666666-111111-33344310-----| x2

Bridge Into Chorus After Keyboard Solo
E|-------------------------------|
B|-------------------------------|
G|-------------------------------|
D|---03044433-0000300--0-666-888-|
A|---03044433-0000300--0-666-888-|
D|---03044433-0000300--0-666-888-|


The Chorus part is played under the keyboard solo.
I think that's it...maybe not 100%, but I think it's pretty damn close.
Tap to rate this tab
# A B C D E F G H I J K L M N O P Q R S T U V W X Y Z