Guitaretab - guitar tabs
Song name
# A B C D E F G H I J K L M N O P Q R S T U V W X Y Z

Deadstar Assembly - Send Me And Angel tab

Intro
E -------------------------------|
B -------------------------------|
G -------------------------------|
D --00--0--00--0--00--0--00--0---|
A --00--0--00--0--00--0--00--0---|
D --00--0--00--0--00--0--00--0---|


E -------------------------------------------|
B -------------------------------------------|
G -------------------------------------------|
D -888888888888-0000-888888888888-10101010---|
A -888888888888-0000-888888888888-10101010---|
D -888888888888-0000-888888888888-10101010---|


E ---------------------------------|
B ---------------------------------|
G ---------------------------------|
D -121212121212121212121212121212--|
A -121212121212121212121212121212--|
D -121212121212121212121212121212--|


E -----------------------------------------------|
B -----------------------------------------------|
G -----------------------------------------------|
D -7777777777777777--------------------------12\-|
A -7777777777777777--------------------------12\-|
D -7777777777777777-000000000000000000000000-12\-|
                    ************************

E --------------------|
B --------------------|
G --------------------|
D -00000000000-0--00-|   x3
A -00000000000-0--00-|
D -00000000000-0--00--|
   ***********

E ---------------------------------------------|
B ---------------------------------------------|
G ---------------------------------------------|
D -00000000000-0-0--88888888-1010101010101010--|
A -00000000000-0-0--88888888-1010101010101010--|
D -00000000000-0-0-88888888-1010101010101010--|
   ***********


E --------------------------|
B --------------------------|
G --------------------------|
D --12/--00-0-0-12/--00-0-0-|
A --12/--00-0-0-12/--00-0-0-|
D --12/--00-0-0-12/--00-0-0-|


E ----------------------------------|
B ----------------------------------|
G ----------------------------------|
D -88888888-1010101010101010-10-10--|
A -88888888-1010101010101010-10-10--|
D -88888888-1010101010101010-10-10--|

Chorus
E -----------------------------------------------------|
B -----------------------------------------------------|
G --------------------------------------777777777777---|
D -555555555555-0000-555555555555-7777--777777777777---|
A -555555555555-0000-555555555555-7777--555555555555---|
D -555555555555-0000-555555555555-7777-----------------|


E ------------------------------|
B ------------------------------|
G --------7777777777777777------|
D --7777--7777777777777777------|
A --7777--5555555555555555------|
D --7777------------------------|


E -----------------------------------------------------|
B -----------------------------------------------------|
G --------------------------------------777777777777---|
D -555555555555-0000-555555555555-7777--777777777777---|
A -555555555555-0000-555555555555-7777--555555555555---|
D -555555555555-0000-555555555555-7777-----------------|

         Do you believe....
E -----------------------------------------------|
B -----------------------------------------------|
G -----------------------------------------------|
D -55555--00----0-00----0-00----0-00--0-0-12/---|
A -55555--00----0-00----0-00----0-00--0-0-12/---|
D -55555--00----0-00----0-00----0-00--0-0-12/---|


E ---------------------------|
B ---------------------------|
G ---------------------------|
D -0000000000000-0-00--  X 3-|
A -0000000000000-0-00--------|
D -0000000000000-0-00--------|
   *************


E -------------------------------|
B -------------------------------|
G -------------------------------|
D -88888888-1010101010101010-12/-|
A -88888888-1010101010101010-12/-|
D -88888888-1010101010101010-12/-|


E ---------------------|
B ---------------------|
G ---------------------|
D -0000000000000-0-00--|   X 3
A -0000000000000-0-00--|
D -0000000000000-0-00--|
   *************

[ Tab from: http://www.guitaretab.com/d/deadstar-assembly/98300.html ]
E ----------------------------|
B ----------------------------|
G ----------------------------|
D -88888888-1010101010101010--|
A -88888888-1010101010101010--|
D -88888888-1010101010101010--|


E --------------------------|
B --------------------------|
G --------------------------|
D --12/--00-0-0-12/--00-0-0-|
A --12/--00-0-0-12/--00-0-0-|
D --12/--00-0-0-12/--00-0-0-|


E ----------------------------------|
B ----------------------------------|
G ----------------------------------|
D -88888888-1010101010101010-10-10--|
A -88888888-1010101010101010-10-10--|
D -88888888-1010101010101010-10-10--|


E -----------------------------------------------------|
B -----------------------------------------------------|
G --------------------------------------777777777777---|
D -555555555555-0000-555555555555-7777--777777777777---|
A -555555555555-0000-555555555555-7777--555555555555---|
D -555555555555-0000-555555555555-7777-----------------|


E ------------------------------|
B ------------------------------|
G --------7777777777777777------|
D --7777--7777777777777777------|
A --7777--5555555555555555------|
D --7777------------------------|


E -------------------------------------------------------------|
B -------------------------------------------------------------|
G -------------------------------------777777777777------------|
D -555555555555-0000-555555555555-7777-777777777777--7-7-7-7-7-|
A -555555555555-0000-555555555555-7777-555555555555--7-7-7-7-7-|
D -555555555555-0000-555555555555-7777---------------7-7-7-7-7-|


E ---------------------|
B ---------------------|
G ---------------------|
D -0000000000000-0-00--|    X 4
A -0000000000000-0-00--|
D -0000000000000-0-00--|
   *************


E ----------------------------|
B ----------------------------|
G ----------------------------|
D -88888888-1010101010101010--|
A -88888888-1010101010101010--|
D -88888888-1010101010101010--|

Don't know what to do...
E --------------------------|
B --------------------------|
G --------------------------|
D --12/--00-0-0-12/--00-0-0-|
A --12/--00-0-0-12/--00-0-0-|
D --12/--00-0-0-12/--00-0-0-|


E ----------------------------------|
B ----------------------------------|
G ----------------------------------|
D -88888888-1010101010101010-10-10--|
A -88888888-1010101010101010-10-10--|
D -88888888-1010101010101010-10-10--|


Chorus
E ---------------------------------------------------------|
B ---------------------------------------------------------|
G -------------------------------------7777777777777777777-|
D -555555555555-0000-555555555555-7777-7777777777777777777-|
A -555555555555-0000-555555555555-7777-5555555555555555555-|
D -555555555555-0000-555555555555-7777---------------------|


E --------------------------------|
B --------------------------------|
G --------------------------------|
D -777777777777-0000-555555555555-|
A -777777777777-0000-555555555555-|
D -777777777777-0000-555555555555-|


E ------------------------------------------------------|
B ------------------------------------------------------|
G ------------------------77777777777------77777777777--|
D -0000-555555555555-7777-77777777777-7777-77777777777--|
A -0000-555555555555-7777-55555555555-7777-55555555555--|
D -0000-555555555555-7777-------------7777--------------|


E ---------------------------------------------------|
B ---------------------------------------------------|
G -------------------------------------777777777777--|
D -555555555555-0000-555555555555-7777-777777777777--|
A -555555555555-0000-555555555555-7777-555555555555--|
D -555555555555-0000-555555555555-7777---------------|


E -------------------|
B -------------------|
G -------------------|
D -7777777777777777--|
A -7777777777777777--|
D -7777777777777777--|


E ------------------------------------------------|
B ------------------------------------------------|
G ------------------------------------------------|
D -0-00-10-12-10-121212/-10-12-10-121212/-0-12-0--|
A -0-00-10-12-10-121212/-10-12-10-121212/-0-12-0--|
D -0-00-10-12-10-121212/-10-12-10-121212/-0-12-0--|
Related for Send Me And Angel tab