Song name
# A B C D E F G H I J K L M N O P Q R S T U V W X Y Z

Deadsy - Brand New Love tab

Deadsy- Brand New Love
Commencement, 2002



This is an awesome song off of commencement. This is the Part Elijah (lead singer/guitar) plays.

Drop D tuning

*- Let Ring/eight count

**- 16 count/let ring

Intro and verse:

E|-----------------------------------------------------------|
B|-10---10---10---8----8----8---7----7----7---8----8----8----|
G|-----7----7---7----7----7---7----7----7---7---7----7----7--|
D|-----------------------------------------------------------|
A|-----------------------------------------------------------|
D|-----------------------------------------------------------|

Play this all throughout the verse section.^


Chorus:

E|------------------------------------|
B|------------------------------------|
G|----------9*-------7**--------------|
D|-0*-------7*-------5**--------------|
A|-0*-------7*-------5**--------------|
D|-0*-------7*-------5**--------------|

Play 4x^


2nd Verse:


E|-----------------------------------------------------------|
B|-10---10---10---8----8----8---7----7----7---8----8----8----|
G|-----7----7---7----7----7---7----7----7---7---7----7----7--|
D|-----------------------------------------------------------|
A|-----------------------------------------------------------|
D|-----------------------------------------------------------|

Play once^

Then play:

E|----------------------------------------|
B|----------------------------------------|
G|-4*--------5*--------7*--------5*-------|
D|-2*--------3*--------5*--------3*-------|
A|-2*--------3*--------5*--------3*-------|
D|-2*--------3*--------5*--------3*-------|


Chorus:

E|------------------------------------|
B|------------------------------------|
G|----------9*-------7**--------------|
D|-0*-------7*-------5**--------------|
A|-0*-------7*-------5**--------------|
D|-0*-------7*-------5**--------------|


Verse once more:

E|-----------------------------------------------------------|
B|-10---10---10---8----8----8---7----7----7---8----8----8----|
G|-----7----7---7----7----7---7----7----7---7---7----7----7--|
D|-----------------------------------------------------------|
A|-----------------------------------------------------------|
D|-----------------------------------------------------------|



Play chorus until end of song:

E|------------------------------------|
B|------------------------------------|
G|----------9*-------7**--------------|
D|-0*-------7*-------5**--------------|
A|-0*-------7*-------5**--------------|
D|-0*-------7*-------5**--------------|


If you have any questions please email me at gmiller09@yahoo.com
Tap to rate this tab
# A B C D E F G H I J K L M N O P Q R S T U V W X Y Z