Guitaretab - guitar tabs
Song name
# A B C D E F G H I J K L M N O P Q R S T U V W X Y Z

Deadsy - Elements tab

Song:The Elements
Band: Deadsy
Album: Commencment
Guitarist: Elijah Blue
Tabbed By: Dead Boy X (Deadboyx@aol.com)
From: "Deadsy: The Darkest Gift"(www.deadsy.f2s.com)


In progress


Intro:
B |---------------------|
G |-----------7-7-7-----|
D |--7-7-7----------7---|
A |--------7------------|
E |---------------------|
A |---------------------|

  This is very soft, with a clean tone and perhaps slight echo.

B |-----------------------|
G |-----------------------|
D |-----------------------|
A |-----------------------|
E |--2-2-2-2--1-1-1-1--1--|
A |--2-2-2-2--1-1-1-1--1--|

  Bring this riff in with a sweep across your distorted A and E strings.

Main Riff:
B |------------------------------------|
G |--------5---------------------------|
D |------------------4-----------------|
A |--7-6-7-----7-6-7-------------------|
E |--7-6-7-----7-6-7-----2-2-2-2--1-1--|
A |--7-6-7-----7-6-7-----2-2-2-2--1-1--|
[ Tab from: http://www.guitaretab.com/d/deadsy/38012.html ]
B |-----------------------------------|
G |-----------------------------------|
D |-----------------------------------|
A |--7-6-7-X--7-6-7-------------------|
E |--7-6-7-X--7-6-7-----2-2-2-2--1-1--|
A |--7-6-7-X--7-6-7-----2-2-2-2--1-1--|

  Loads of fuzz. The second part is a variation.

Verse guitar riffs:
B |---------|  |----------------------------|
G |---------|  |----------------------------|
D |---------|  |----------------------------|
A |--7--2---|  |-7-6-6-7--9----2-2-2--1--1--|
E |--7--2---|  |-7-6-6-7--9----2-2-2--1--1--|
A |--7--2---|  |-7-6-6-7--9----2-2-2--1--1--|


Bridge/middle eight.
Guitar w/chorus & echo
B |---------------------|
G |---------------------|
D |---------------------|
A |---------------------|
E |---------------------|
A |--2--9---9-10-9---7--|

Variation on bridge guitar riff
Guitar w/distortion & slight chorus
B |-----------------------------|
G |-----------------------------|
D |-----------------------------|
A |--2----9---9-10-9----7----6--|
E |--2----9---9-10-9----7----6--|
A |--2----9---9-10-9----7----6--|
Related for Elements tab
Elements chords by Deadsy