Song name
# A B C D E F G H I J K L M N O P Q R S T U V W X Y Z

Deaf Children Playing - Untitled 2 chords

Highlighted       Show chord diagrams
G  G/E  (4x)

G                     D                   Bm
Please, Please, Please, Donít Go
C                     D
And break my heart in 
G                D              Bm
Two, three, four, five, you
C                   D
Know all the things you 
Bm                             C
Do and thing you say,  Just to try and make me stay
         Bm                           C
Like a hook, a line, a sinker and the one that got away
        Bm                          C                           D   (D7)
And Iím trying all my best moves to make this on thing clear to you

(half-time)

G              D           Am        Em      (D-C-B)
You go through boys like a bottle of water
    G              D                Am      Em
And one things for sure, why should I even bother

(A tempo)

C/E           C          D           D/B
Cause I canít stand this running all around
    C/E     C       D               D/B
And I canít seem to get this number down
    C/E      C              D            D/B  Am  G
And I donít think that Iíll ever fall in love with you 

G G/E (4x)

G           D          Bm
I spend sleepless nights
       C            D
Just trying to make things 
G               D        Bm
Right, left, inside, out 
        C         D
Just hoping for some
Bm                                           C
Thing that I can say to you to make you go away 
                 Bm                                         C
Cause Iím tired of all the run around to make it through the day 
               Bm                                               C                            D7
And Iím screening all my calls cause you always want to hear me say

(half-time)

G              D           Am        Em      (D-C-B)
You go through boys like a bottle of water
    G              D                Am      Em
And one things for sure, why should I even bother

(A tempo)

C/E           C          D           D/B
Cause I canít stand this running all around
    C/E     C       D               D/B
And I canít seem to get this number down
    C/E      C              D            D/B  Am  G
And I donít think that Iíll ever fall in love with you 

G G/E (4x)

Guitar Solo:

    G      D     Bm         C         D   G              D  
e|--------------------------------------------------------------------------|
B|--/4-----7--5--4--4-5-4-5-7--5-6-7--7-9-12-12-12-12-12-12-12--11-11-11-9--|
G|------5-------------------------------------------------------------------|
D|--------------------------------------------------------------------------|
A|--------------------------------------------------------------------------|
E|--------------------------------------------------------------------------|

    Bm           C        D        Bm              C         Bm        
e|--------------------------------------------------------------------------|
B|--7-7-9-7-5-5--5h7p5\4--4h5p4------------4-5-4-5/7-5-4-5------------4-5-4-|
G|-----------------------------/7--5-7-5-7-----------------7--5-7-5-7-------|
D|--------------------------------------------------------------------------|
A|--------------------------------------------------------------------------|
E|--------------------------------------------------------------------------|

      C          Bm              C            D                  D7
e|--------------------------------------------------------------------------|
B|--5/7-5-4-5------------4-5-4-5/7--5-7-9-7-9-12--11-11-9-9-----------------|
G|------------7--5-7-5-7------------------------------------12-12-10-10-9-9-|
D|--------------------------------------------------------------------------|
A|--------------------------------------------------------------------------|
E|--------------------------------------------------------------------------|

       (G)
e|----------|
B|----------|
G|----------|
D|----------|
A|--12-10---|
E|----------|

(half time)

G              D           Am        Em      (D-C-B)
You go through boys like a bottle of water
    G              D                Am      Em
And one things for sure, why should I even bother


(Atempo)

C/E           C           D          D/B
Cause I canít stand this running all around
    C/E     C       D               D/B
And I canít seem to get this number down
    C/E      C              D            D/B
And I donít think that Iíll ever fall in love 
    C/E      C              D            D/B
And I donít think that Iíll ever fall in love 
    C/E      C              D            D/B  Am  G
And I donít think that Iíll ever fall in love with You 

G G/E (4x)


Tap to rate this tab
 
# A B C D E F G H I J K L M N O P Q R S T U V W X Y Z