Song name
# A B C D E F G H I J K L M N O P Q R S T U V W X Y Z

Deaf Havana - Oh Howard You Crack Me Up tab

-----------------------------------------------------------------------------
	      "Oh Howard, You Crack Me Up"  - Deaf Havana
-----------------------------------------------------------------------------

Tabbed by: gainaddict
Tuning: Dropped D

Hey, This is my atempt at tabbing "oh howard, you crack me up", im not sure
the intro is exactly what they play but this is how i play it also im unsure
of the verses so have just put what i play over them, But the main rhythms 
are there so hopefully this will do :)


Intro:

e|-----------------------------------------------------------------------|
B|-----------------------------------------------------------------------|
G|--------------------------6--6-----------------------------------------| x4
D|-----------------------------------------------------------------------|
A|---------4p0--------------4--4------1p0-1p0----------------3-----------|
E|--1p0-0-------0-3p0--1p0--------0-0---------0-3p0--5-0-3h5-------------|


Verse:

e|------------|
B|------------|
G|------------|
D|------5*----|
A|------5*----|
E|------5*----|       

e|---------------------------------|
B|---------------------------------|
G|-----7--------9--10--------9-----|  x2
D|--------x12----------x12---------|
A|-----5--------7--8---------7-----|
E|---------------------------------|

e|----------------------------------|
B|----------------------------------|
G|------------------10--------------| x2
D|------0-----------8---------------|
A|------0---x12-----8----x12--------|
E|------0-----------8---------------|

      Pm .............

e|------------------------------------------------------------|
B|------------------------------------------------------------|
G|------------------------------------------------------------|
D|---0-00--------0-00---------0-00----------0-00----00--------|
A|---0-00--------0-00---------0-00----------0-00----00--------|
E|---0-00--------0-00---------0-00----------0-00----00--------|

Chorus:

e|-------------------------------------------------------|
B|-------------------------------------------------------|
G|-----10--------10------9--------12------7--------------| x2
D|-----8--x8-----0---x4--0---x4---10--x8--5---x8---------|
A|-----8---------0-------0--------10------5--------------|
E|-----8---------0-------0--------10------5--------------|

Main Riff:

e|----------------------------------------------------------------------|
B|----------------------------------------------------------------------|
G|--------------------------6--6----------------------------------------| x4
D|----------------------------------------------------------------------|
A|---------4p0--------------4--4------1p0-1p0----------------3----------|
E|--1p0-0-------0-3p0--1p0--------0-0---------0-3p0--5-0-3h5------------|

Verse 2:

e|-----5-----------1------------|
B|-----6-----------2------------|
G|-----7---x12-5---2---x12------| x2
D|-----7-------5---2------------|
A|-----5-------3---1------------|
E|------------------------------|

e|----------------------------------|
B|----------------------------------|
G|------------------10--------------| x2
D|------0-----------8---------------|
A|------0---x12-----8----x12--------|
E|------0-----------8---------------|

      Pm .............

e|------------------------------------------------------------|
B|------------------------------------------------------------|
G|------------------------------------------------------------|
D|---0-00--------0-00---------0-00----------0-00----00--------|
A|---0-00--------0-00---------0-00----------0-00----00--------|
E|---0-00--------0-00---------0-00----------0-00----00--------|



Chorus:

e|-------------------------------------------------------|
B|-------------------------------------------------------|
G|-----10--------10------9--------12------7--------------| x2
D|-----8--x8-----0---x4--0---x4---10--x8--5---x8---------|
A|-----8---------0-------0--------10------5--------------|
E|-----8---------0-------0--------10------5--------------|

Bridge:

e|-----------------------------------------------|
B|-----------------------------------------------|
G|-----10-10-10----10--------14-14-14----14------|
D|-----8--8--8-----8----x2---12-12-12----12------|
A|-----8--8--8-----8---------12-12-12----12---x2-|
E|-----8--8--8-----8---------12-12-12----12------|


e|--------------------------------------------------|
B|--------------------------------------------------|
G|-----12-12-12----12-----------7-7-7----7----------|  x2
D|-----10-10-10----10----x2-----5-5-5----5---x2-----|
A|-----10-10-10----10-----------5-5-5----5----------|
E|-----10-10-10----10-----------5-5-5----5----------|

e|--------------------------------------------------------------------------|
B|--------------------------------------------------------------------------|
G|--------------------------------------------------------------------------|
D|--------------------x2----888--888--8888------555--555--5555----x2-----0--|
A|--------------------------888--888--8888------555--555--5555-----------0--|
E|-----5/8--10\5------------888--888--8888------555--555--5555-----------0--|

e|------------|
B|------------|
G|----10~-----|
D|----8~------|
A|----8~------|
E|----8~------|

Chorus:

e|-------------------------------------------------------|
B|-------------------------------------------------------|
G|-----10--------10------9--------12------7--------------| x4
D|-----8--x8-----0---x4--0---x4---10--x8--5---x8---------|
A|-----8---------0-------0--------10------5--------------|
E|-----8---------0-------0--------10------5--------------|


e|-------------|
B|-------------|
G|--10-10~-----|
D|--8--8~------|
A|--8--8~------|
E|--8--8~------|

thats it :)
If you like deaf havana and similar bands then check out my band on:

www.myspace.com/toendanempireuk

thanks

************************************

| /   slide up
| \   slide down
| h   hammer-on
| p   pull-off
| ~   vibrato
| *   harmonic
| x   Mute note
| b   Bend
| pb  Pre-bend
| br  Bend release
| pbr Pre-bend release
| brb Bend release bend

************************************


Tap to rate this tab
# A B C D E F G H I J K L M N O P Q R S T U V W X Y Z