Song name
# A B C D E F G H I J K L M N O P Q R S T U V W X Y Z

Deaf Havana - Nicotine And Alcohol Saved My Life tab

I was hoping maybe if I find a tab for part of the song, someone else can help
find the rest. It's a beautiful song.

Beginning Intro for Lead Guitar (it's also used in the song somewhere too)

E--10-10-10-9-9-9-2-2-2-2-2-2-2-2-2-0-2-2-2-5-5-5-------------------|
B-------------------------------------------------5-5-5-5-5-5-5-5-5-|
G-------------------------------------------------------------------|
D-------------------------------------------------------------------|
A-------------------------------------------------------------------|
E-------------------------------------------------------------------|

E--10-10-10-9-9-9-2-2-2-2-2-2-2-2-2-0-2-2-2-5-5-5-7-7-7-7-7-7-7-7-7-|
B-------------------------------------------------------------------|
G-------------------------------------------------------------------|
D-------------------------------------------------------------------|
A-------------------------------------------------------------------|
E-------------------------------------------------------------------|

Ending Intro

E--10-10-10-9-9-9-2-2-2-2-2-2-2-2-2-0-2-2-2-5-5-5-------------------|
B-------------------------------------------------5-5-5-5-5-5-5-5-5-|
G-------------------------------------------------------------------|
D-------------------------------------------------------------------|
A-------------------------------------------------------------------|
E-------------------------------------------------------------------|

E--10-10-10-9-9-9-2-2-2-2-2-2-2-2-2-0-2-2-2-5-5-5-7-7-7-10-10-12-12-|
B-------------------------------------------------------------------|
G-------------------------------------------------------------------|
D-------------------------------------------------------------------|
A-------------------------------------------------------------------|
E-------------------------------------------------------------------|

E--14~--------------------------------------------------------------|
B-------------------------------------------------------------------|
G-------------------------------------------------------------------|
D-------------------------------------------------------------------|
A-------------------------------------------------------------------|
E-------------------------------------------------------------------|
Tap to rate this tab
 
# A B C D E F G H I J K L M N O P Q R S T U V W X Y Z