Song name
# A B C D E F G H I J K L M N O P Q R S T U V W X Y Z

Deaf Havana - Nicotine And Alcohol Saved My Life tab

-------------------------------------------------------------------------------
	      Nicotine And Alcohol Saved My Life  Deaf Havana
-------------------------------------------------------------------------------
Tabbed by: Alext09
Email:
 UPDATED!!!

Tuning: drop D (DADGBe)

Intro: chords (clean)
e|--7------------2-------------5--------------------------------------------------|
B|--7------------2-------------5--------------------------------------------------|
G|--9------------4-------------7--------------------------------------------------|
D|--9------------4-------------7--------------------------------------------------|x1
A|--7------------2-------------5--------------------------------------------------|
D|--------------------------------------------------------------------------------|

Pre verse/ pre chorus (rhythm) (distortion)
e|-----------------------------------------------------------------------------|
B|-----------------------------------------------------------------------------|
G|-----------------------------------------------------------------------------| x2
D|----5-------7--------9-------------------------------------------------------|
A|----5x16---7x16----9---x32-------------------------------------------------|
D|----5-------7--------9-------------------------------------------------------|

Pre verse/ pre chorus(lead)(distortion)(may also be in background of verse 2 not sure)
E--10-10-10-9-9-9-2-2-2-2-2-2-2-2-2-0-2-2-2-5-5-5-------------------|
B-------------------------------------------------5-5-5-5-5-5-5-5-5-|
G-------------------------------------------------------------------|
D-------------------------------------------------------------------|
A-------------------------------------------------------------------|
E-------------------------------------------------------------------|

E--10-10-10-9-9-9-2-2-2-2-2-2-2-2-2-0-2-2-2-5-5-5-7-7-7-7-7-7-7-7-7-|
B-------------------------------------------------------------------|
G-------------------------------------------------------------------|
D-------------------------------------------------------------------|
A-------------------------------------------------------------------|
E-------------------------------------------------------------------|

Ending Intro

E--10-10-10-9-9-9-2-2-2-2-2-2-2-2-2-0-2-2-2-5-5-5-------------------|
B-------------------------------------------------5-5-5-5-5-5-5-5-5-|
G-------------------------------------------------------------------|
D-------------------------------------------------------------------|
A-------------------------------------------------------------------|
E-------------------------------------------------------------------|

E--10-10-10-9-9-9-2-2-2-2-2-2-2-2-2-0-2-2-2-5-5-5-7-7-7-10-10-12-12-|
B-------------------------------------------------------------------|
G-------------------------------------------------------------------|
D-------------------------------------------------------------------|
A-------------------------------------------------------------------|
E-------------------------------------------------------------------|

E--14~--------------------------------------------------------------|
B-------------------------------------------------------------------|
G-------------------------------------------------------------------| all x2
D-------------------------------------------------------------------|
A-------------------------------------------------------------------|
E-------------------------------------------------------------------|


Verse chords same as intro ones (x2) then for the screaming part of 1st verse: (all clean)

e|-------------------------------------------------------------------------------|
B|-------------------------------------------------------------------------------|
G|---9--------------------7------------------------------------------------------|
D|---7--------------------5------------------------------------------------------|
A|---7x16----------------5x16--------------------------------------------------| x2
D|---7--------------------5------------------------------------------------------|

Then back to pre verse/ pre chorus (distortion)

Chorus (distortion)
e|-----------------------------------------------------------------------------|
B|-----------------------------------------------------------------------------|
G|----9---------4-----------7--------------------------------------------------|
D|----9x8------4---x8------7x16----------------------------------------------|x2
A|----7---------2-----------5--------------------------------------------------|
D|-----------------------------------------------------------------------------|

Back to verse (clean)

e|-------------------------------------------------------------------------------|
B|-------------------------------------------------------------------------------|
G|---9--------------------7------------------------------------------------------|
D|---7--------------------5------------------------------------------------------|x2
A|---7x16----------------5x16--------------------------------------------------|
D|---7--------------------5------------------------------------------------------|

Then back to chorus

Bridge (distortion)
e|------------------------------------------------------------------------------|
B|------------------------------------------------------------------------------|
G|------------------------------------------------------------------------------|x2
D|------------------------------------------------------------------------------|All PM
A|------------------------------------------------------------------------------|
D|--777--999--121212--5555555--777--999--444-5555555----------------------------|

Then stop palm muting and play
e|-----------------------------------------------------------------------------|
B|-----------------------------------------------------------------------------|
G|-----------------------------------------------------------------------------|
D|--7-----9-----12-----5-----7-----9-----4-----5-------------------------------|
A|--7-x3--9-x3--12-x3--5-x7--7-x3--9-x3--4-x3--5-x7----------------------------|
D|--7-----9-----12-----5-----7-----9-----4-----5-------------------------------|

continued
e|-----------------------------------------------------------------------------|
B|-----------------------------------------------------------------------------|
G|-----------------------------------------------------------------------------|
D|--7-----9-----12-----5-----7-----9-----4-----5-------------------------------|
A|--7-x3--9-x3--12-x3--5-x7-7-----9-----4-----5-------------------------------|
D|--7-----9-----12-----5-----7-----9-----4-----5-------------------------------|
                             Let ring these last four chords


Back to chorus then to Outro: (clean)

e|-----------------------------------------------------------------------------|
B|-----------------------------------------------------------------------------|
G|----9---------4-----------7--------------------------------------------------|
D|----9x8------4---x8------7x16----------------------------------------------|x2
A|----7---------2-----------5--------------------------------------------------|All PM
D|-----------------------------------------------------------------------------|


Then un palm mute for the last two bars with the same chords and Finnish on 577
************************************

| /   slide up
| \   slide down
| h   hammer-on
| p   pull-off
| ~   vibrato
| +   harmonic
| x   Mute note
| b   Bend
| pb  Pre-bend
| br  Bend release
| pbr Pre-bend release
| brb Bend release bend

************************************
Tap to rate this tab
 
# A B C D E F G H I J K L M N O P Q R S T U V W X Y Z