Deaf Havana - Nicotine And Alcohol Saved My Life tab

DEAF HAVANA
NICOTINE AND ALCOHOL SAVED MY LIFE
Tabbed by: Josh Anglim
Tuning: Drop D

Intro (Guitar 1)
e|-x---------x---------5--------|
b|-x---------x---------5--------|
g|-11--x16---11--x16---7--x17---|
d|-11--------11--------7--------|
a|-9---------9---------5--------|
D|-S9--------7---------5--------|


Post Intro (Guitar 1)              Post Intro (Guitar 2)
e|------------------------------|  e-10-10-10-9-9-9-2-2-2-2-2-2-2-2-0-2-2-2-|
b|------------------------------|  b----------------------------------------|
g|--------------------------x2--|  g----------------------------------------|
d|-9--x?----7--x?----5--x?------|  d----------------------------------------|
a|-9--------7--------5----------|  a----------------------------------------|
D|-9--------7--------5----------|  D----------------------------------------|


e-5-5-5-0-0-0-0-0-0-0-0-0-0--|-10-10-10-9-9-9-2-2-2-2-2-2-2-2-0-2-2-2-5-5-5-|
b---------------------------------------------------------------------------|
g---------------------------------------------------------------------------|
d---------------------------------------------------------------------------|
a---------------------------------------------------------------------------|
D---------------------------------------------------------------------------|


e-7-7-7-9-9-9-10-10-12--------------|
b-----------------------------------|
g-----------------------------------|
d-----------------------------------|
a-----------------------------------|
D-----------------------------------|


Verse (Guitar 1)
e------------------------------------------------------------|
b------------------------------------------------------------|
g---7-7--7-7--7---6-6--6-6--6--6-6--6-6--6---6-6--6-6---6----|
d-9----9----9---9----9----9---7----7----7---7----7----7------|
a------------------------------------------------------------|
D------------------------------------------------------------|


Chorus (Guitar 1)
e------------------------------------------| FIGURE OUT STRUM PATTERN
b------------------------------------------| (simple)
g------------x2---(REST)--------------x2---|
d-9---7---5----------------7---9---5-------|
a-9---7---5----------------7---9---5-------|
D-9---7---5----------------7---9---5-------|
Tap to rate this tab
 
# A B C D E F G H I J K L M N O P Q R S T U V W X Y Z