Deaf Havana - Nicotine And Alcohol Saved My Life tab

Right:

First tab. But the other ones are wrong :|
Its in Drop D. As you do.

  Intro: Clean

E|-9----------7---------5---------|
B|-9----------7---------5---------|
G|-11-x16-----9--x16----7-x32-----|
D|-12---------11--------7---------|
A|-9----------7---------5---------|
D|-9----------7---------5---------|

   
   Intro: Distortion 1

E|-10-10-10-9-9-9-----------------------------------------|
B|-------------------------------------10-10-10-----------|
G|-----------------11-11-11-9-11-11-11----------9-9-9-----|
D|--------------------------------------------------------|
A|--------------------------------------------------------|
D|--------------------------------------------------------|

  
E|-10-10-10-9-9-9-----------------------------------------|
B|-------------------------------------10-10-10-12-12-12--|
G|-----------------11-11-11-9-11-11-11--------------------|
D|--------------------------------------------------------|
A|--------------------------------------------------------|
D|--------------------------------------------------------|
   
E|-10-10-10-9-9-9-----------------------------------------|
B|-------------------------------------10-10-10-----------|
G|-----------------11-11-11-9-11-11-11----------9-9-9-----|
D|--------------------------------------------------------|
A|--------------------------------------------------------|
D|--------------------------------------------------------|

E|-10--9-9-9---------------9-9-9-10-10-10-12-12-14--------|
B|-------------------10-12--------------------------------|
G|-----------11-9-11--------------------------------------|
D|--------------------------------------------------------|
A|--------------------------------------------------------|
D|--------------------------------------------------------|
   Intro: Distortion 2

E|-------------------------5---------------------|
B|-------------------------5---------------------|
G|---11---------9----------7---------------------|
D|---9----------7----------7---------------------|
A|---9--x16-----7--x16-----5--x32----------------|
D|---9----------7----------5---------------------|


  Verse 1: Clean / Light Distortion

E|-9----------7---------5---------|
B|-9----------7---------5---------|
G|-11-x16-----9--x16----7-x32-----| x8?
D|-12---------11--------7---------|
A|-9----------7---------5---------|
D|-9----------7---------5---------|


  Verse 1: Clean / Light Distortion

E|-9----------7---------5---------|
B|-9----------7---------5---------|
G|-11-x16-----9--x16----7-x32-----|
D|-12---------11--------7---------|
A|-9----------7---------5---------|
D|-9----------7---------5---------|

  
   Chorus: Distortion 1

E|-10-10-10-9-9-9-----------------------------------------|
B|-------------------------------------10-10-10-----------|
G|-----------------11-11-11-9-11-11-11----------9-9-9-----|
D|--------------------------------------------------------|
A|--------------------------------------------------------|
D|--------------------------------------------------------|

  
E|-10-10-10-9-9-9-----------------------------------------|
B|-------------------------------------10-10-10-12-12-12--|
G|-----------------11-11-11-9-11-11-11--------------------|
D|--------------------------------------------------------|
A|--------------------------------------------------------|
D|--------------------------------------------------------|
   
E|-10-10-10-9-9-9-----------------------------------------|
B|-------------------------------------10-10-10-----------|
G|-----------------11-11-11-9-11-11-11----------9-9-9-----|
D|--------------------------------------------------------|
A|--------------------------------------------------------|
D|--------------------------------------------------------|

E|-10--9-9-9---------------9-9-9-10-10-10-12-12--------|
B|-------------------10-12-----------------------------|
G|-----------11-9-11-----------------------------------|
D|-----------------------------------------------------|
A|-----------------------------------------------------|
D|-----------------------------------------------------|
   Chorus: Distortion 2

E|-------------------------5---------------------|
B|-------------------------5---------------------|
G|---11---------9----------7---------------------|
D|---9----------7----------7---------------------|
A|---9--x16-----7--x16-----5--x32----------------|
D|---9----------7----------5---------------------|

  Chorus: [pt 2: guitar 1.]
  And im not changing my mind.. with the seasons..
E|--------------------5------|
B|--------------------5------|
G|--9-------11--------7------|
D|--7--x16--9---x16---7--x32-|
A|--7-------9---------5------|
D|--7-------9---------5------|


   Verse 2: Clean / Light Distortion

E|-9----------7---------5---------|
B|-9----------7---------5---------|
G|-11-x16-----9--x16----7-x32-----|
D|-12---------11--------7---------|
A|-9----------7---------5---------|
D|-9----------7---------5---------|


  Verse 2: Overdub [Distortion]

E|-10-10-10-9-9-9-----------------------------------------|
B|-------------------------------------10-10-10-----------|
G|-----------------11-11-11-9-11-11-11----------9-9-9-----|
D|--------------------------------------------------------|
A|--------------------------------------------------------|
D|--------------------------------------------------------|

  
E|-10-10-10-9-9-9-----------------------------------------|
B|-------------------------------------10-10-10-12-12-12--|
G|-----------------11-11-11-9-11-11-11--------------------|
D|--------------------------------------------------------|
A|--------------------------------------------------------|
D|--------------------------------------------------------|
   
E|-10-10-10-9-9-9-----------------------------------------|
B|-------------------------------------10-10-10-----------|
G|-----------------11-11-11-9-11-11-11----------9-9-9-----|
D|--------------------------------------------------------|
A|--------------------------------------------------------|
D|--------------------------------------------------------|

E|-10--9-9-9---------------9-9-9-10-10-10-12-12--------|
B|-------------------10-12-----------------------------|
G|-----------11-9-11-----------------------------------|
D|-----------------------------------------------------|
A|-----------------------------------------------------|
D|-----------------------------------------------------|
 
    Chorus 2: 

 And im not changing my mind.. with the seasons..

   Guitar 1
E|--------------------5------|
B|--------------------5------|
G|--9-------11--------7------|
D|--7--x16--9---x16---7--x32-|
A|--7-------9---------5------|
D|--7-------9---------5------|
 
  Guitar 2
E|---------------------------------------|
B|--15----14----17------19--17--15-------|
G|--x-----x------x------x---x---x--------|
D|--12----11----14------16--14--12-------|
A|---------------------------------------|
D|---------------------------------------|

  Middle 8 / Break

E|----------------------------------------------|
B|----------------------------------------------|
G|------------Palm-mutes------------------------| x2
D|----------------------------------------------|
A|----------------------------------------------|
D|---7-777--9-999--12-121212---5-5-5-4-4-5-5----|

E|----------------------------------------------|
B|----------------------------------------------|
G|----------------------------------------------| x2
D|---7-7-7-9-9-9-12-12-12-5-5-5-4-4-5-5---------|
A|---7-7-7-9-9-9-12-12-12-5-5-5-4-4-5-5---------|
D|---7-7-7-9-9-9-12-12-12-5-5-5-4-4-5-5---------|

E|----------------------|
B|----------------------|
G|----------------------|
D|---7--9--12-5~~~~~----|
A|---7--9--12-5~~~~~----|
D|---7--9--12-5-~~~~----|

  Chorus:
   & I'm not changing my mind...

   Guitar 1
E|--------------------5------|
B|--------------------5------|
G|--9-------11--------7------|
D|--7--x16--9---x16---7--x32-|
A|--7-------9---------5------|
D|--7-------9---------5------|
 
  Guitar 2
E|---------------------------------------|
B|--15----14----17------19--17--15-------|
G|--x-----x------x------x---x---x--------|
D|--12----11----14------16--14--12-------|
A|---------------------------------------|
D|---------------------------------------|


  Final Verse / Outro

 Clean: Guitar 1: Palm mute 

E|-9----------7---------5---------|
B|-9----------7---------5---------|
G|-11-x16-----9--x16----7-x32-----|
D|-12---------11--------7---------|         R
A|-9----------7---------5---------|          E
D|-9----------7---------5---------|           P 
                                               E
   Clean: Guitar 2                              A 
   On the first & eighth chord..                 T
   Start strumming second time through.                              
E|-10---------7---------5---------|                T      
B|-10---------7---------5---------|                 O
G|-11---------9---------7---------|
D|-12---------9---------7---------|                   E
A|--------------------------------|                    N
D|--------------------------------|                     D





Thats about it.. 

Pretty self explanatory..

And..

Well yeah.
There'll be no feedback because its a decent tab.

Thanks all x
Tap to rate this tab
 
# A B C D E F G H I J K L M N O P Q R S T U V W X Y Z