Song name
# A B C D E F G H I J K L M N O P Q R S T U V W X Y Z

Deaf Havana - Nicotine And Alcohol Saved My Life tab

Just doing a quick into tab because i think the other tab is a good tab but the intro 
has got a few bits i thought i'd better correct.

Guitar 1:

E-x--------x---------0-------|
B-x--------7---------3-------|
G-11-------9---------2-------|
D-12--x16--11--x16---5---x32-|
A-9--------7---------x-------|
D-9--------7---------5-------|

Guitar 1:

E---------------------------|
B---------------------------|
G-11--x16--9----x16--7--x32-|
D-9--------7---------5------|
A-9--------7---------5------|
D-9--------7---------5------|

Guitar 2:

E10-10-10-9-9-9---------------------------------------------------------------|
B---------------------------------------------------10-10-10------------------|
G--------------11-11-11-11-11-11-11-11-11-9/11-11-11---------9-x10------------|
D-----------------------------------------------------------------------------|
A-----------------------------------------------------------------------------|
D-----------------------------------------------------------------------------|

E10-10-10-9-9-9---------------------------------------------------------------|
B---------------------------------------------------10-10-10--12-x10----------|
G--------------11-11-11-11-11-11-11-11-11-9/11-11-11--------------------------|
D-----------------------------------------------------------------------------|
A-----------------------------------------------------------------------------|
D-----------------------------------------------------------------------------|

E10-10-10-9-9-9---------------------------------------------------------------|
B---------------------------------------------------10-10-10------------------|
G--------------11-11-11-11-11-11-11-11-11-9/11-11-11--------9-x10-------------|
D-----------------------------------------------------------------------------|
A-----------------------------------------------------------------------------|
D-----------------------------------------------------------------------------|

E10-10-10-9-9-9-------------------------------------9-9-9-10-10-12-12-14------|
B---------------------------------10-10-10-12-12-12---------------------------|
G--------------11-x10-9/11-11-11----------------------------------------------|
D-----------------------------------------------------------------------------|
A-----------------------------------------------------------------------------|
D-----------------------------------------------------------------------------|
Tap to rate this tab
 
# A B C D E F G H I J K L M N O P Q R S T U V W X Y Z