Song name
# A B C D E F G H I J K L M N O P Q R S T U V W X Y Z

Deaf Havana - The World Or Nothing tab

-------------------------------------------------------------------------------
THE WORLD OR NOTHING - Deaf Havana
-------------------------------------------------------------------------------
Tabbed by: Karl
Email: karlmurray1@live.co.uk
Tuning: standard

e|-------------------------------------------------|
B|-------------------------------------------------|
G|-------------------------------------------------|
D|-----4+------------------------------------------|
A|--------5+--4+-----------------------------------|
E|-------------------------------------------------|
Natural harmonics ^^
e|-------------------------------------------------|
B|-------------------------------------------------|
G|-------------------------------------------------|
D|-------------------------------------------------|
A|--5-5-5-5-5-5-5-5--5-5-5-5-5-5-5-5---------------|
E|-------------------------------------------------|

e|--------------------------------------------------------------------|
B|--------------------------------------------------------------------|
G|--------------------------------------------------------------------|
D|--------------------------------------------------------------------| x4
A|--5-5-5-5-5-5-5-5--5-5-5-5-5-5-5-5--9-9-9-9-9-9-9-9-9-9-9-9-9-9-9-9-|
E|--------------------------------------------------------------------|

e|---------------------------------------------------------------------|
B|---------------------------------------------------------------------|
G|---------------------------------------------------------------------| x2
D|-----------------------------------4-4-4-4-4-4-4-4--7-7-7-7-7-7-7-7--|
A|-5-5-5-5-5-5-5-5--5-5-5-5-5-5-5-5--2-2-2-2-2-2-2-2--5-5-5-5-5-5-5-5--|
E|-3-3-3-3-3-3-3-3--3-3-3-3-3-3-3-3------------------------------------|

There is no rhythm guitar during the verses, and I dont have a clue what Chris does, so 
you can play the above, because that is basically what Lee is doing, minus the fills he 
does at the end of each phrase
Chorus:
e|----------------------------------------------------------------------|
B|----------------------------------------------------------------------|
G|----------------------------------------------------------------------| x4
D|-5-5-5-5-5-5-5-5--7-7-7-7-7-7-7-7--9-9-9-9-9-9-9-9--9-9-9-9-9-9-9-9---|
A|-5-5-5-5-5-5-5-5--7-7-7-7-7-7-7-7--9-9-9-9-9-9-9-9--9-9-9-9-9-9-9-9---|
E|-3-3-3-3-3-3-3-3--5-5-5-5-5-5-5-5--7-7-7-7-7-7-7-7--7-7-7-7-7-7-7-7---|

e|---------------------------------------------------------------------|
B|---------------------------------------------------------------------|
G|---------------------------------------------------------------------| x2
D|-----------------------------------4-4-4-4-4-4-4-4--7-7-7-7-7-7-7-7--|
A|-5-5-5-5-5-5-5-5--5-5-5-5-5-5-5-5--2-2-2-2-2-2-2-2--5-5-5-5-5-5-5-5--|
E|-3-3-3-3-3-3-3-3--3-3-3-3-3-3-3-3------------------------------------|
(First time, dont play the G)
Again, no rhythm guitar in the verse, but you can still play the G B D over it anyway.
e|----------------------------------------------------------------------|
B|----------------------------------------------------------------------|
G|----------------------------------------------------------------------|
D|-5-5-5-5-5-5-5-5--7-7-7-7-7-7-7-7--9-9-9-9-9-9-9-9--9-9-9-9-9-9-9-9---|
A|-5-5-5-5-5-5-5-5--7-7-7-7-7-7-7-7--9-9-9-9-9-9-9-9--9-9-9-9-9-9-9-9---|
E|-3-3-3-3-3-3-3-3--5-5-5-5-5-5-5-5--7-7-7-7-7-7-7-7--7-7-7-7-7-7-7-7---|
Chorus:
e|----------------------------------------------------------------------|
B|----------------------------------------------------------------------|
G|----------------------------------------------------------------------| x4
D|-5-5-5-5-5-5-5-5--7-7-7-7-7-7-7-7--9-9-9-9-9-9-9-9--9-9-9-9-9-9-9-9---|
A|-5-5-5-5-5-5-5-5--7-7-7-7-7-7-7-7--9-9-9-9-9-9-9-9--9-9-9-9-9-9-9-9---|
E|-3-3-3-3-3-3-3-3--5-5-5-5-5-5-5-5--7-7-7-7-7-7-7-7--7-7-7-7-7-7-7-7---|

Bridge:
e|------------------------------------|
B|------------------------------------|
G|-4-4-4-4-4-4-4-4--4-4-4-4-4-6-6-6---|
D|-0-0-0-0-0-0-0-0--0-0-0-0-0-0-0-0---|
A|-5-5-5-5-5-5-5-5--5-5-5-5-5-5-5-5---|
E|------------------------------------|

e|------------------------------------|
B|------------------------------------|
G|-7-7-7-7-7-7-7-7--7-7-7-7-7-6-6-6---|
D|-0-0-0-0-0-0-0-0--0-0-0-0-0-0-0-0---| x4
A|-5-5-5-5-5-5-5-5--5-5-5-5-5-5-5-5---|
E|------------------------------------|
On the 4th time stop and hold it at the 3rd bar (d octave)

e|-------------------------------------|
B|-------------------------------------|
G|-------------------------------------|
D|-5-5-5-5-5-5-5-5--5-5-5-5-5-7-7-7----|
A|-5-5-5-5-5-5-5-5--5-5-5-5-5-7-7-7----|
E|-3-3-3-3-3-3-3-3--3-3-3-3-3-5-5-5----|

e|-------------------------------------|
B|-------------------------------------|
G|-------------------------------------|
D|-9-9-9-9-9-9-9-9--9-9-9-9-9-7-7-7----|
A|-9-9-9-9-9-9-9-9--9-9-9-9-9-7-7-7----|
E|-7-7-7-7-7-7-7-7--7-7-7-7-7-5-5-5----|

e|-------------------------------------|
B|-------------------------------------|
G|-4-4-4-4-4-4-4-4--4-4-4-4-4-6-6-6----|
D|-0-0-0-0-0-0-0-0--0-0-0-0-0-0-0-0----|
A|-5-5-5-5-5-5-5-5--5-5-5-5-5-5-5-5----|
E|-------------------------------------|

e|-------------------------------------|
B|----------------------------101010---|
G|-7-7-7-7-7-7-7-7--7-7-7-7-7-7-7-7----|
D|-0-0-0-0-0-0-0-0--0-0-0-0-0-0-0-0----| x2
A|-5-5-5-5-5-5-5-5--5-5-5-5------------|
E|-------------------------------------|
last time end on the 3rd bar again (d octave)



************************************

| /   slide up
| \   slide down
| h   hammer-on
| p   pull-off
| ~   vibrato
| +   harmonic
| x   Mute note
| b   Bend
| pb  Pre-bend
| br  Bend release
| pbr Pre-bend release
| brb Bend release bend

************************************
Tap to rate this tab
 
# A B C D E F G H I J K L M N O P Q R S T U V W X Y Z