Song name
# A B C D E F G H I J K L M N O P Q R S T U V W X Y Z

Deaf Havana - Hunstanton Pier tab

Sup UG, this is Deaf Havanaís Hunstanton Pier one of my favorite songs on the Fools and 
Worthless Liars Album ^_^. Listen to the song for strumming, sorry Iím absolutely too 
lazy to tab the strumming

Quick Note: This song is played in DADGBD, that means D tuning your highest e string, 
and itíll sound off if you forget!


Intro: Acoustic Guitar

D|-------0---------|-------4---------|--------0--------|--------4--------|
B|-------3---------|-------3---------|--------3--------|--------3--------|
G|-------2---------|-------X---------|--------2--------|--------X--------|
D|-------0---------|-------5---------|--------0--------|--------5--------|
A|-------0---------|-------5---------|--------0--------|--------5--------|
D|-------0---------|-------5---------|--------0--------|--------5--------|

Verse/Instrumental Verse: Acoustic Guitar

D|-------0---------|-------4---------|-----0-----0----|--------4--------|
B|-------3---------|-------3---------|-----3-----2----|--------3--------|
G|-------2---------|-------X---------|-----4-----2----|--------X--------|
D|-------0---------|-------5---------|-----4-----2----|--------5--------|
A|-------0---------|-------5---------|-----2-----0----|--------5--------|
D|-------0---------|-------5---------|----------------|--------5--------|

Verse: Lead Guitar

D|----12-----------------------------------|
B|-------------10--------------------------|
G|-------------------12--11----------------|
D|-----------------------------------------| X5
A|-----------------------------------------|
D|-----------------------------------------|

D|-----------------------------------------|
B|-----------------------------------------|
G|--------14-------12--11------------------|
D|-----------------------------14--12------|
A|-----------------------------------------|
D|-----------------------------------------|


Then after ďIn timeĒ (Guitar With Delay so heard notes are actually not always played)

D|----12-12-12-12/--------14-14-12-14/16-16/-----------------------------------|
B|-----------------------------------------------------------------------------|
G|-----------------------------------------------------------------------------|
D|-----------------------------------------------------------------------------|
A|-----------------------------------------------------------------------------|
D|-----------------------------------------------------------------------------|

D|----14-14-14-14-15p14-------12-14-12-14/16-12/-------11------------|
B|-----------------------------------------------------------12------|
G|--------------------------------------------------------------11---|
D|-------------------------------------------------------------------|
A|-------------------------------------------------------------------|
D|-------------------------------------------------------------------|



Pre-Chorus: Acoustic Guitar

D|-------0---------|-------0---------|--------4--------|--------0--------|
B|-------2---------|-------3---------|--------3--------|--------3--------|
G|-------2---------|-------4---------|--------x--------|--------2--------|
D|-------2---------|-------4---------|--------5--------|--------0--------|
A|-------0---------|-------2---------|--------5--------|--------0--------|
D|-----------------|-----------------|--------5--------|--------0--------|

D|-------0---------|-------0---------|--------4--------|----4----0------|
B|-------2---------|-------3---------|--------3--------|----3----2------|
G|-------2---------|-------4---------|--------x--------|----X----2------|
D|-------2---------|-------4---------|--------5--------|----5----2------|
A|-------0---------|-------2---------|--------5--------|----5----0------|
D|-----------------|-----------------|--------5--------|----5-----------|

D|-------0---------|-----0----0-----|
B|-------3---------|-----3----2-----|
G|-------4---------|-----4----2-----|
D|-------4---------|-----4----2-----|
A|-------2---------|-----2----0-----|
D|----------------|-----------------|


Pre-Chorus: Lead Guitar

D|----11-----11-----11-----11----12-----12-----14-----16-----------------------|
B|--------10-----10-----10-----10----10-----10-----10------10------------------|
G|-----------------------------------------------------------------------------|
D|-----------------------------------------------------------------------------|
A|-----------------------------------------------------------------------------|
D|-----------------------------------------------------------------------------|

D|----12-----12-----12-----12----12-----12-----16-----14-----------------------|
B|--------10-----10-----10-----10----10-----10-----10------10------------------|
G|-----------------------------------------------------------------------------|
D|-----------------------------------------------------------------------------|
A|-----------------------------------------------------------------------------|
D|-----------------------------------------------------------------------------|


Chorus: Acoustic Guitar

D|-------4---------|-------0---------|--------0--------|----0----0--------|
B|-------3---------|-------3---------|--------2--------|----3----2--------|
G|-------X---------|-------2---------|--------2--------|----4----2--------|
D|-------5---------|-------0---------|--------2--------|----4----2--------|
A|-------5---------|-------0---------|--------0--------|----2----0--------|
D|-------5---------|-------0---------|-----------------|------------------|

D|-------4---------|-------0---------|--------0--------|--------0----------|
B|-------3---------|-------3---------|--------2--------|--------2----------|
G|-------X---------|-------2---------|--------2--------|--------2----------|
D|-------5---------|-------0---------|--------2--------|--------2----------|
A|-------5---------|-------0---------|--------0--------|--------0----------|
D|-------5---------|-------0---------|------------------|------------------|

Instrumental Post-Chorus: Distorted Guitar

D|-------0---------| ----------------|--------0--------|-----------------|
B|-------3---------|-------3---------|--------3--------|--------3--------|
G|-------2---------|-------0---------|--------2--------|--------0--------|
D|-------0---------|-------5---------|--------0--------|--------5--------|
A|-------0---------|-------5---------|--------0--------|--------5--------|
D|-------0---------|-------5---------|--------0--------|--------5--------|


Lead Guitar:

D|----12-12-12-12-12-12-12-------------------------------------------------|
B|-----------------------------------10-10-10-10---------------------------|
G|-----------------------------------------------------12-12-12-11-11------|
D|-------------------------------------------------------------------------|
A|-------------------------------------------------------------------------|
D|-------------------------------------------------------------------------|

Verse: Acoustic Guitar

D|-------0---------|-------4---------|-----0-----0----|--------4--------|
B|-------3---------|-------3---------|-----3-----2----|--------3--------|
G|-------2---------|-------X---------|-----4-----2----|--------X--------|
D|-------0---------|-------5---------|-----4-----2----|--------5--------|
A|-------0---------|-------5---------|-----2-----0----|--------5--------|
D|-------0---------|-------5---------|----------------|--------5--------|

Verse: Distorted Guitar: Same as the Acoustic Chords but strum once per bar

Verse: Lead Guitar

D|----/19-19-19-19-19----------------------------------------------------------|
B|---------------------------19-19-19-19-17-17-17-17-15-15-10------------------|
G|-----------------------------------------------------------------------------|
D|-----------------------------------------------------------------------------|
A|-----------------------------------------------------------------------------|
D|-----------------------------------------------------------------------------|



Pre-Chorus: Acoustic Guitar

D|-------0---------|-------0---------|--------4--------|--------0-----------|
B|-------2---------|-------3---------|--------3--------|--------3-----------|
G|-------2---------|-------4---------|--------x--------|--------2-----------|
D|-------2---------|-------4---------|--------5--------|--------0-----------|
A|-------0---------|-------2---------|--------5--------|--------0-----------|
D|------------------|-----------------|--------5--------|--------0----------|

D|-------0---------|-------0---------|--------4--------|----4----0------|
B|-------2---------|-------3---------|--------3--------|----3----2------|
G|-------2---------|-------4---------|--------x--------|----X----2------|
D|-------2---------|-------4---------|--------5--------|----5----2------|
A|-------0---------|-------2---------|--------5--------|----5----0------|
D|-----------------|-----------------|--------5--------|----5-----------|

D|-------0---------|-----0----0--------|
B|-------3---------|-----3----2--------|
G|-------4---------|-----4----2--------|
D|-------4---------|-----4----2--------|
A|-------2---------|-----2----0--------|
D|-----------------|-------------------|

Pre-Chorus: Distorted Guitar: Same as the Acoustic Chords but strum once per bar



Chorus: Distorted Guitar

You can either play the same acoustic chords or simple bar-chords like so:

D|------------------|-----------------|------------------|---------------------|
B|------------------|-----------------|------------------|---------------------|
G|------------------|-----------------|------------------|---------------------|
D|-------5----------|-------0---------|--------7--------|----9----7------------|
A|-------5----------|-------0---------|--------7--------|----9----7------------|
D|-------5----------|-------0---------|--------7--------|----9----7------------|

D|------------------|-----------------|------------------|---------------------|
B|------------------|-----------------|------------------|---------------------|
G|------------------|-----------------|------------------|---------------------|
D|-------5----------|-------0---------|--------7--------|--------7-------------|
A|-------5----------|-------0---------|--------7--------|--------7-------------|
D|-------5----------|-------0---------|--------7--------|--------7-------------|

Bridge: Distorted Guitar

D|------------------|------------------|-----------------|--------------------|
B|------------------|------------------|-----------------|--------------------|
G|------------------|------------------|-----------------|--------------------|
D|------------------|------------------|-----------------|--------------------|
A|------------------|------------------|-----------------|--------------------|
D|-9-9-9-9-9-9-9-9-|-9-9-9-9-9-9-9-9-|-5-5-5-5-5-5-5-5-|-5-5-5-5-5-5-5-5------|

D|------------------|------------------|-----------------|--------------------|
B|------------------|------------------|-----------------|--------------------|
G|------------------|------------------|-----------------|--------------------|
D|------------------|------------------|-----------------|--------------------|
A|------------------|------------------|-----------------|--------------------|
D|-9-9-9-9-9-9-9-9-|-9-9-9-9-9-9-9-9-|-5-5-5-5-5-5-5-5-|-5-5-5-5-5-5-5-5------|

D|------------------|------------------|-----------------|--------------------|
B|------------------|------------------|-----------------|--------------------|
G|------------------|------------------|-----------------|--------------------|
D|------------------|------------------|-----------------|--------------------|
A|------------------|------------------|-----------------|--------------------|
D|-0-0-0-0-0-0-0-0-|-0-0-0-0-0-0-0-0-|-7-7-7-7-7-7-7-7-|-7-7-7-7-7-7-7-7------|

D|------------------|------------------|-----------------|--------------------|
B|------------------|------------------|-----------------|--------------------|
G|------------------|------------------|-----------------|--------------------|
D|------------------|------------------|-----------------|--------------------|
A|------------------|------------------|-----------------|--------------------|
D|-9-9-9-9-9-9-9-9-|-9-9-9-9-9-9-9-9-|-5-5-5-5-5-5-5-5-|-5-5-5-5-5-5-5-5------|

D|------------------|------------------|-----------------|--------------------|
B|------------------|------------------|-----------------|--------------------|
G|------------------|------------------|-----------------|--------------------|
D|------------------|------------------|-----------------|--------------------|
A|------------------|------------------|-----------------|--------------------|
D|--2-2-2-2-2-2-2-2-|-0-0-0-0-0-0-0-0-|-10-10-10-10-10-10-10-10-10-10-10------|

Iím pretty sure thatís a single string thatís played



Bridge: Lead Guitar

D|----12-12-12-12-12-12-12-----------------------------------------------------|
B|-----------------------------------14-14-14-14-------------------------------|
G|-----------------------------------------------------14-14-14-11-11----------|
D|-----------------------------------------------------------------------------|
A|-----------------------------------------------------------------------------|
D|-----------------------------------------------------------------------------|



After this the Acoustic Guitar Plays the Chorus once
Then repeat the Chorus again

Acoustic Outro:

D|-------4---------|-------4---------|--------0--------|----0----0-----|
B|-------3---------|-------3---------|--------2--------|----3----2-----|
G|-------0---------|-------0---------|--------2--------|----4----2-----|
D|-------5---------|-------X---------|--------2--------|----4----2-----|
A|-----------------|-------5---------|--------0--------|----2----0-----|
D|-----------------|-----------------|------------------|--------------|

D|-------4----------|-------4---------|--------0~-----------|
B|-------3----------|-------3---------|--------2~-----------|
G|-------0----------|-------0---------|--------2~-----------|
D|-------5----------|-------X---------|--------2~-----------|
A|------------------|-------5---------|--------0~-----------|
D|------------------|-----------------|---------------------|
Tap to rate this tab
# A B C D E F G H I J K L M N O P Q R S T U V W X Y Z