Song name
# A B C D E F G H I J K L M N O P Q R S T U V W X Y Z

Deaf Havana - The Past Six Years tab

Deaf Havana - The Past Six years from Fools And Worthless Liars

Just the intro and verse parts.....will work out chorus parts and post soon

Not 100% correct but it'll get you started

Standard Tuning, Capo 4th fret (sounds nearest to the CD)

Chords just give you an indication of hand positioning


    Am            C               G               Am
E----------------------------------------------------------------|
B---------1------------------1---------------1-------------------|
G---2--2-----2------------------0---------------0--2-------------|
D---2-----------------0 h 2------------------------2-------------|
A---0-----------2--3------------------0 h 2--------0---------0---|
E----------------------------------3------------------0 h 3------|

    F                  C            G             Am
E----------------------------------------------------------------|
B---------1------------------------------------------------------|
G---2--------2-----2--------0------------------0-----2-----------|
D---3--3--------3-----2---------------------------0--2-----------|
A---------------------3--3-----3--2-----0 h 2--------0---------0-|
E------------------------------------3------------------0 h 3----|


Enjoy
Fletch0311
Tap to rate this tab
# A B C D E F G H I J K L M N O P Q R S T U V W X Y Z