Song name
# A B C D E F G H I J K L M N O P Q R S T U V W X Y Z

Deaf Havana - You Are Beautiful tab

Deaf Havana-You Are Beautiful
First tab-let me know if I've made any mistakes. Tabster888

Standard tuning EADGBE

Intro-Lead Guitar

|-------------------------------------0----|
|-----------------------------------3---3--|
|------4b5b4-0-----0-2-------0-------------|    x2
|----2---------0h2---------2---2-----------|
|--0---------------------3-------3---------|
|------------------------------------------|


Rythme comes in with

        A               C
|---------------------------------|
|---------------------------------|
|-------------x8-------------x8---|
|-----------------------5---------|
|-------7---------------3---------|
|-------5-------------------------|

WHERE HAVE YOU BEEN



Lead moves to

|---------------------------------------------------------------|
|-----12-12b13b12-------------------------------15b16b15-12-----|
|-----------------12-------12-------------12----------------12--|
|--14----------------12h14----14----12h14----14-----------------|
|--------------------------------15-----------------------------|
|---------------------------------------------------------------|



|---------------------------------------------------------------|
|-----12-12b13b12-----------------------------------------------|
|-----------------12-------12-----------------------------------|
|--14----------------12h14----14--------------------------------|
|--------------------------------15-x6--14-x6-------------------|
|---------------------------------------------------------------|



Rythme

        A        G
|--------------------------------|
|--------------------------------|
|--------------------------------|      x4
|----------x18-------x6-------x6-|
|------7x--------5x-------3x-----|
|------5x--------3x-------1x-----|

The smell of lonleyness and the heartache of distance
Is all we have left.
And when your dress hits the floor it's obvious, 
It's been well kept.


   A            C               A         c      F
|-------------------------------------------------------|
|-------------------------------------------------------|
|-------------------------------------------------------|
|-----------x2--5-5-5-5--x2-----------x2--5--x6-----x6--|
|--7-7-7-7------3-3-3-3------7-7-7-7------3------3------|
|--5-5-5-5-------------------5-5-5-5-------------1------|


'Cos I'm waiting for what seems a fucking lifetime
For a night with you.

    F               A                C
|-----------------------------------------------------|
|-----------------------------------------------------|
|-----------------------------------------------------|
|---------------x4---------------x2--5-5-5-5-5-5--x2--|
|--3-3-3-3-3-3------7-7-7-7-7-7------3-3-3-3-3-3------|
|--1-1-1-1-1-1------5-5-5-5-5-5-----------------------|

Because I belong to you
And you are beautiful.
I know your heart is full
And you are beautiful.


   A            C               A         c      F
|-------------------------------------------------------|
|-------------------------------------------------------|
|-------------------------------------------------------|
|-----------x2--5-5-5-5--x2-----------x2--5--x6-----x6--|
|--7-7-7-7------3-3-3-3------7-7-7-7------3------3------|
|--5-5-5-5-------------------5-5-5-5-------------1------|


Lead


|-------------------------------------0----|
|-----------------------------------3---3--|
|------4b5b4-0-----0-2-------0-------------|    x2
|----2---------0h2---------2---2-----------|
|--0---------------------3-------3---------|
|------------------------------------------|


Rythme

        A        G
|--------------------------------|
|--------------------------------|
|--------------------------------|      x4
|----------x18-------x6-------x6-|
|------7x--------5x-------3x-----|
|------5x--------3x-------1x-----|

When we crash down
On these well abandoned bed sheets,
We'll settle down.
As hands begin to wonder
And fingers sart to creep,
This house we made is just enough to keep us warm.
To keep us warm.


   A            C               A         c      F
|-------------------------------------------------------|
|-------------------------------------------------------|
|-------------------------------------------------------|
|-----------x2--5-5-5-5--x2-----------x2--5--x6-----x6--|
|--7-7-7-7------3-3-3-3------7-7-7-7------3------3------|
|--5-5-5-5-------------------5-5-5-5-------------1------|


'Cos I'm waiting for what seems a fucking lifetime
For a night with you.


    F               A                C
|-----------------------------------------------------|
|-----------------------------------------------------|
|-----------------------------------------------------|
|---------------x4---------------x2--5-5-5-5-5-5--x2--|
|--3-3-3-3-3-3------7-7-7-7-7-7------3-3-3-3-3-3------|
|--1-1-1-1-1-1------5-5-5-5-5-5-----------------------|

Because I belong to you
And you are beautiful.
I know your heart is full
And you are beautiful.

   A        G        F                 G                 E
|--------------------------------------------------------------------------|
|--------------------------------------------------------------------------|
|--------------------------------------------------------1-1-1-1--1-1-1-1--|
|--------------------------------------------------------2-2-2-2--2-2-2-2--|    
|--7-7-7-7--5-5-5-5--3-3-3-3--3-3-3-3--5-5-5-5--5-5-5-5--2-2-2-2--2-2-2-2--|
|--5-5-5-5--3-3-3-3--1-1-1-1--1-1-1-1--3-3-3-3--3-3-3-3--0-0-0-0--0-0-0-0--|

And how could I ever leave you behind
with a distance as close as this.


   A        G        F                 E                 E7
|--------------------------------------------------------------------------|
|--------------------------------------------------------------------------|
|--------------------------------------1-1-1-1--1-1-1-1--1-1-1-1--1-1-1-1--|
|--------------------------------------2-2-2-2--2-2-2-2--0-0-0-0--0-0-0-0--|
|--7-7-7-7--5-5-5-5--3-3-3-3--3-3-3-3--2-2-2-2--2-2-2-2--2-2-2-2--2-2-2-2--|
|--5-5-5-5--3-3-3-3--1-1-1-1--1-1-1-1--0-0-0-0--0-0-0-0--0-0-0-0--0-0-0-0--|

And how could I ever leave you behind
with a distance as perfect as this.


   A        G        F                 G                 E
|--------------------------------------------------------------------------|
|--------------------------------------------------------------------------|
|--------------------------------------------------------1-1-1-1--1-1-1-1--|
|--------------------------------------------------------2-2-2-2--2-2-2-2--|    
|--7-7-7-7--5-5-5-5--3-3-3-3--3-3-3-3--5-5-5-5--5-5-5-5--2-2-2-2--2-2-2-2--|
|--5-5-5-5--3-3-3-3--1-1-1-1--1-1-1-1--3-3-3-3--3-3-3-3--0-0-0-0--0-0-0-0--|


   A        G        F                 E                 E7
|--------------------------------------------------------------------------|
|--------------------------------------------------------------------------|
|--------------------------------------1-1-1-1--1-1-1-1--1-1-1-1--1-1-1-1--|
|--------------------------------------2-2-2-2--2-2-2-2--0-0-0-0--0-0-0-0--|
|--7-7-7-7--5-5-5-5--3-3-3-3--3-3-3-3--2-2-2-2--2-2-2-2--2-2-2-2--2-2-2-2--|
|--5-5-5-5--3-3-3-3--1-1-1-1--1-1-1-1--0-0-0-0--0-0-0-0--0-0-0-0--0-0-0-0--|



   A            C               A         c      F
|-------------------------------------------------------|
|-------------------------------------------------------|
|-------------------------------------------------------|
|-----------x2--5-5-5-5--x2-----------x2--5--x6-----x6--|
|--7-7-7-7------3-3-3-3------7-7-7-7------3------3------|
|--5-5-5-5-------------------5-5-5-5-------------1------|

And I could never leave you behind.
And I could never leave you.





| /   slide up
| \   slide down
| h   hammer-on
| p   pull-off
| ~   vibrato
| *   harmonic
| x   Mute note
| b   Bend
Tap to rate this tab
# A B C D E F G H I J K L M N O P Q R S T U V W X Y Z