Song name
# A B C D E F G H I J K L M N O P Q R S T U V W X Y Z

Deaf Havana - Anemophobia tab

-------------------------------------------------------------------------------
                             SONG NAME - Band Name
-------------------------------------------------------------------------------
Tabbed by:Ross123


Tuning:Standard

Song follows this progression all the way through

e|-2--2-2--2------3--3-3--3-3-3----------------------------------------------|
B|-3--3-3--3------3--3-3--3-3-3----------------------------------------------|
G|-4--4-4--4------4--4-4--4-4-4----------------------------------------------|
D|-4--4-4--4------5--5-5--5-5-5---------x3-----------------------------------|
A|-2--2-2--2------5--5-5--5-5-5----------------------------------------------|
E|----------------3--3-3--3-3-3----------------------------------------------|

e|---0-----------------------------------------------------------------------|
B|---2-----------------------------------------------------------------------|
G|---2-----------------------------------------------------------------------|
D|---2-----------------------------------------------------------------------|
A|---0-----------------------------------------------------------------------|
E|---------------------------------------------------------------------------|

Except from the bridge when the vocals come in


e|---------------------------------------------------------------------------|
B|---------------------------------------------------------------------------|
G|---------------------------------------------------------------------------|
D|--5----------2-------------------------------------------------------------|
A|--5----------2-------------------------------------------------------------|
E|--3----------0-------------------------------------------------------------|

Obviously in the distorted parts just play them as powerchords and so forth


************************************

| /   slide up
| \   slide down
| h   hammer-on
| p   pull-off
| ~   vibrato
| +   harmonic
| x   Mute note
| b   Bend
| pb  Pre-bend
| br  Bend release
| pbr Pre-bend release
| brb Bend release bend

************************************
Tap to rate this tab
# A B C D E F G H I J K L M N O P Q R S T U V W X Y Z