Song name
# A B C D E F G H I J K L M N O P Q R S T U V W X Y Z

Deaf Havana - The Past Six Years tab

CAPO ON 4TH FOR THE RECORD
CAPO ON 6TH FOR THIS ACOUSTIC VERSION: http://www.youtube.com/watch?v=YRyDtuohpww - 
this tab is slightly more based on that version and how I play it and is better if 
you want to play it by yourself or with a chord accompaniment:)

Pick the intro and the verses, but as soon as you get to this chord - 320130 which 
is E7+9 you start strumming and strum the chorus too.
The chord E7+9 (in the lyrics) lands on "eve" in the first verse and "else" in the 
second verse just so timing is put into perspective and all.

Saw the other tabs and chords and thought they needed a bit of work, but just 
comment if you have any improvements/suggestions, hope you enjoy:)

   Am   C    G    F   E7+9 C/B
e|-0----0----3----0----0----0-|
B|-1----1----3----1----3----1-|
G|-2----0----0----2----1----0-|
D|-2----2----0----3----0----0-|
A|-0----3----2----0----2----2-|
E|-x----x----3----x----3----x-|


INTRO

   Am      C           G         Am           
e|-----------------------------------------------|
B|-----1-----------1---------3-------1-----------|
G|-2-2---2-----------0---------0-2-2-------------|
D|-2-----------0h2---------------2---------------|
A|-0-------2-3-----------0h2-----0---------0-----|
E|---------------------3---------------0h3-------|

   F            C          G         Am
e|-----0-----------------------------------------|
B|-------1---1------1------------3-------1-------|
G|-2-2-----2-----------------------0-2-2---------|
D|-3---------------------------------2-----------|
A|-0------------3-3---3-2----0h2-----0---------0-|
E|-------------------------3---------------0h3---|


VERSE

These days my friends...
   Am      C           G         Am           
e|-----------------------------------------------|
B|-----1-----------1---------3-------1-----------|
G|-2-2---2-----------0---------0-2-2-------------|
D|-2-----------0h2---------------2---------------|
A|-0-------2-3-----------0h2-----0---------0-----|
E|---------------------3---------------0h3-------|

We were all sinners and drunks...
   F            C          G         Am
e|-----0-----------------------------------------|
B|-------1---1------1------------3-------1-------|
G|-2-2-----2-----------------------0-2-2---------|
D|-3---------------------------------2-----------|
A|-0------------3-3---3-2----0h2-----0---------0-|
E|-------------------------3---------------0h3---|

Mike's on day time radio..
   Am      C           G         Am           
e|-----------------------------------------------|
B|-----1-----------1---------3-------1-----------|
G|-2-2---2-----------0---------0-2-2-------------|
D|-2-----------0h2---------------2---------------|
A|-0-------2-3-----------0h2-----0---------0-----|
E|---------------------3---------------0h3-------|

I'm still playing the Purple Turtle...
   F            C          E7+9        
e|-----0--------------------0-|
B|-------1---1------1-------3-|
G|-2-2-----2----------------1-|
D|-3------------------------0-|
A|-0------------3-3---3-2---2-|
E|--------------------------3-|

CHORUS

G      Am              F     G          Am                  F
We are sick and we are tired, we're all fools and worthless liars

G             Am        F
Young and unemployable, lonely, drunk and beautiful

G        Am           F
We're so sick and oh so tired, so tired


   Am      C           G         Am           
e|-----------------------------------------------|
B|-----1-----------1---------3-------1-----------|
G|-2-2---2-----------0---------0-2-2-------------|
D|-2-----------0h2---------------2---------------|
A|-0-------2-3-----------0h2-----0---------0-----|
E|---------------------3---------------0h3-------|

   F            C          G         Am
e|-----0-----------------------------------------|
B|-------1---1------1------------3-------1-------|
G|-2-2-----2-----------------------0-2-2---------|
D|-3---------------------------------2-----------|
A|-0------------3-3---3-2----0h2-----0---------0-|
E|-------------------------3---------------0h3---|




VERSE

Through these cynical...
   Am      C           G         Am           
e|-----------------------------------------------|
B|-----1-----------1---------3-------1-----------|
G|-2-2---2-----------0---------0-2-2-------------|
D|-2-----------0h2---------------2---------------|
A|-0-------2-3-----------0h2-----0---------0-----|
E|---------------------3---------------0h3-------|

And these songs...
   F            C          G         Am
e|-----0-----------------------------------------|
B|-------1---1------1------------3-------1-------|
G|-2-2-----2-----------------------0-2-2---------|
D|-3---------------------------------2-----------|
A|-0------------3-3---3-2----0h2-----0---------0-|
E|-------------------------3---------------0h3---|

I've made plans...
   Am      C           G         Am           
e|-----------------------------------------------|
B|-----1-----------1---------3-------1-----------|
G|-2-2---2-----------0---------0-2-2-------------|
D|-2-----------0h2---------------2---------------|
A|-0-------2-3-----------0h2-----0---------0-----|
E|---------------------3---------------0h3-------|

That song about friends...
   F            C          E7+9        
e|-----0--------------------0-|
B|-------1---1------1-------3-|
G|-2-2-----2----------------1-|
D|-3------------------------0-|
A|-0------------3-3---3-2---2-|
E|--------------------------3-|

CHORUS

G      Am              F     G          Am                  F
We are sick and we are tired, we're all fools and worthless liars

G             Am        F
Young and unemployable, lonely, drunk and beautiful

G        Am           F
We're so sick and oh so tired, so tired

MIDDLE 8

e|-------------------------------------------0-------|
B|----1-------------1-----------1--------------1---1-|
G|------0---0---------0---0-------0---0----2-----2---| x2
D|--2-----2-------0-----0-----2-----2----3-----------|   
A|-0----------0h2-----------3------------------------|  
E|---------------------------------------------------|

I'm not getting any younger...
e|-------------------------------------------0-------|
B|----1-------------1-----------1--------------1---1-|
G|------0---0---------0---0-------0---0----2-----2---| 
D|--2-----2-------0-----0-----2-----2----3-----------|
A|-0----------0h2-----------3------------------------|  
E|---------------------------------------------------|

   c                     C/B          G
My breath won't last for that much longer  pause

CHORUS

G      Am              F     G          Am                  F
We are sick and we are tired, we're all fools and worthless liars

G             Am        F
Young and unemployable, lonely, drunk and beautiful

G        Am           F
We're so sick and oh so tired

G      Am              F     G          Am                  F
We are sick and we are tired, we're all fools and worthless liars

G             Am        F
Young and unemployable, lonely, drunk and beautiful

G        Am           F           G  Am
We're so sick and oh so tired, so tired

END RIFF - if you really wanna play it that badly...

e|---0-------0-------0-------0-------------|
B|-----3-------3-------3-------3-----------|
G|-2-----0-2-----0-2-----0-2-----0-2-------|
D|-----------------------------------------|
A|-----------------------------------------|
E|-----------------------------------------|
Tap to rate this tab
 
# A B C D E F G H I J K L M N O P Q R S T U V W X Y Z