Song name
# A B C D E F G H I J K L M N O P Q R S T U V W X Y Z

Deaf Havana - Smiles All Round tab

Smiles All Round - Deaf Havana Tabs
Tuning: Drop D


Intro
0:00-0:06

|---------------------------------------|
|---------------------------------------|x2
|---------------------------------------|
|-0-0-0--2-2-2--4-4-4--7-7-7-7-7-7------|
|-0-0-0--2-2-2--4-4-4--7-7-7-7-7-7------|
|-0-0-0--2-2-2--4-4-4--7-7-7-7-7-7------|


Verse
0:07-0:28

|---------2---------0---0---0------|----------------|
|------------5---2----2---2--------|---------5---5--| This whole
|------------------------------x3--|-1--2/4----4----| part x2
|-2/4-4----------------------------|----------------|
|----------------------------------|----------------|
|----------------------------------|----------------|


Bridge
0:29-0:39

|-14---12-----------------14---12------------------|
|----------12--14------------------12--14---14b15--|
|--------------------------------------------------|
|--------------------------------------------------|
|--------------------------------------------------|
|--------------------------------------------------|


Verse
0:40-1:03

|-14-14----------------------------------------14-14----------------|
|--------12-12--14-14-----------------12-14-----------12-12---14b15-|
|----------------------11-11----11-14-------------------------------|
|-------------------------------------------------------------------|
|-------------------------------------------------------------------|
|-------------------------------------------------------------------|

|-14-14----------------------------------------|
|--------12-12--14-14------------------12-14---|
|----------------------11--11----11-14---------|
|----------------------------------------------|
|----------------------------------------------|
|----------------------------------------------|

|---------------------------|
|-14---12-------------------|Play this
|----------14-13-14-13--9---|verse x2
|---------------------------|
|---------------------------|
|---------------------------|


Bridge
1:04-1:05

|--------------------------|
|-10-9---------------------|
|------9-11-9----------9---|
|-------------11-9-7-9-----|
|--------------------------|
|--------------------------|


Chorus
1:06-1:27

|----------------------------|
|-5-----9-----10------9------|
|-x-----x-----x-------x------|
|-2-----6-----7-------6------|
|---x8----x8-----x12----x4---| x4
|----------------------------|


Bridge
1:28-1:49

|------------------------------------|
|-----2-----2------------------------|
|---2-----2-----2-----1---2---1---1--|
|-4-----4-----4-----2---2---2---2----|
|------------------------------------| x8
|------------------------------------|


Some awesome part
1:50-1:59

|-----------------------------------|---------------|
|-----------------------------------|-7------5------|
|-----------------------------------|-x------x------|
|-0-0-0--2-2-2--4-4-4-4-4-4-4-4-----|-4------2------|
|-0-0-0--2-2-2--4-4-4-4-4-4-4-4--x2-|---x15----x1---|
|-0-0-0--2-2-2--4-4-4-4-4-4-4-4-----|---------------|


Awesome BREAK
2:00-2:02

|-------------------------|Mute the strings (x) with your
|-----5-----5-------------|fingers between the 3rd and 4th
|---4-----4---------------|fret! Sounds Awesome! :)
|-7-----7------x-x-x-x-x--|
|--------------x-x-x-x-x--|
|--------------x-x-x-x-x--|


Chorus
2:03-2:24

|-------------------|-------------------------------------|
|-------------------|-------------------------------------|
|-------------------|-------------------------------------|
|-4-4-4-4--2-2-2-2--|-0-0-0-0--2-2-2-2--4-4-4-4-4-4--2-2--|
|-4-4-4-4--2-2-2-2--|-0-0-0-0--2-2-2-2--4-4-4-4-4-4--2-2--| x3
|-4-4-4-4--2-2-2-2--|-0-0-0-0--2-2-2-2--4-4-4-4-4-4--2-2--|


Tabs made by Stianerdal
Tap to rate this tab
# A B C D E F G H I J K L M N O P Q R S T U V W X Y Z