Song name
# A B C D E F G H I J K L M N O P Q R S T U V W X Y Z

Deaf Havana - Im A Bore Mostly tab

I'm doing the drop d version (i saw them do this live)
Pretty sure this is mostly correct, might be a couple slip ups

Guitar 1 (James)

Intro/Verse


e|------------------------------------------------------------|
b|---3-3-3-3-3--3-3-3-3-3-------------------------------------|
g|---0-0-0-0-0--0-0-0-0-0---7-7-7-7-7---6-6-6-6-6-------------|
D|---0-0-0-0-0--0-0-0-0-0---0-0-0-0-0---0-0-0-0-0-------------|
A|---x-x-x-x-x--x-x-x-x-x---x-x-x-x-x---x-x-x-x-x-------------|
D|---4-4-4-4-4--5-5-5-5-5---9-9-9-9-9---7-7-7-7-7-------------|

Pre-chorus/Chorus/Backing solo

e|-------------------------------------------------|
b|-------------------------------------------------|
g|---4-----7-----6-----------4-------7------6------|
D|---0-----0-----0-------or--0-------0------0------|
A|---0-x8--0-x8--0-x16-------5-x8----9-x8---7-x16--|
D|---5-----9-----7-----------5-------9------7------|


Its basically that all the way through, at the end of the chorus, just palm mute 
basically, i don't think that's 100% accurate, but it sounds fine enough i think for now.

Guitar 2




Intro/Pre-Chorus (W/Delay and Chorus possibly)
Pretty sure these are the notes, sound right either way.

e|-----------------------------------------------------------------|
b|-----------10-p-7~------------10-p-5~----------------------------|
g|---7-h-9---------------7-h-9-------------------------------------|
D|-----------------------------------------------------------------|
A|-----------------------------------------------------------------|
D|-----------------------------------------------------------------|




Chorus (W/delay towards end of Chorus)(little bit sketchy, the delay makes it hard to 
get exact number of times, but these ARE the notes played)

e|-----------------------------------------------------------|
b|10-p-7---------10-p-7---------------------10---------------|
g|--------9-p-7----------9-p-7--x2----7-h-9------X?----------|
D|-----------------------------------------------------------|
A|-----------------------------------------------------------|
D|-----------------------------------------------------------|

Not too sure about the solo, sounds like it goes like this though:


e|-----------------------------------------------------------------|
b|-----------10-p-7~---------------10-p-5~--5-s-7--10-p-7~---------|
g|---7-h-9-----------x2-----7-h-9----------------------------------|
D|-----------------------------------------------------------------|
A|-----------------------------------------------------------------|
D|-----------------------------------------------------------------|
Tap to rate this tab
# A B C D E F G H I J K L M N O P Q R S T U V W X Y Z