Song name
# A B C D E F G H I J K L M N O P Q R S T U V W X Y Z

Deaf Havana - Night Drives tab

Capo on 2nd

Intro

e-----0---------0----------0---------0---------------|
B---3--3-3-----3--3-3----3--3-3----3--3-3------------|
G----------------------------------------------------| x2
D--0-0--0--------------------------------------------|
A-------------0-0--0---------------------------------|
E-----------------------3-3--3----3-3--3-------------|

Verse

e-----0---------0----------0---------0---------------|
B---3--3-3-----3--3-3----3--3-3----3--3-3------------|
G----------------------------------------------------| x4 
D--0-0--0--------------------------------------------|
A-------------0-0--0---------------------------------|
E-----------------------3-3--3----3-3--3-------------|

Chorus

has the same riff underneath these chords (sounds good but might not be 100%)

    Bm      A     G
e----7------5-----3----|
B----7------5-----3----|
G----7------6-----4----|
D----9------7-----5----|
A----9------7-----5----|
E----7------5-----3----|

just after the chorus it plays this

e-----0---------0----------0---------0---------------|
B---3--3-3-----3--3-3----3--3-3----3--3-3------------|
G----------------------------------------------------| x1
D--0-0--0--------------------------------------------|
A-------------0-0--0---------------------------------|
E-----------------------3-3--3----3-3--3-------------|


Verse x4

Chorus x4

The bridge uses the same chords as the chorus

Solo

e-10-10-10-12/14-14-14-12-10-12-12-10/12/14-------------------------------|
B-------------------------------------------10h12-12-12-12-12-12-10-10-10-|
G-------------------------------------------------------------------------|
D-------------------------------------------------------------------------|
A-------------------------------------------------------------------------|
E-------------------------------------------------------------------------|


e-----10-12-14-14-14-14-12-10-12-12-12-14-17----------------|
B--12-----------------------------------------14h15---------|
G-----------------------------------------------------------|
D-----------------------------------------------------------|
A-----------------------------------------------------------|
E-----------------------------------------------------------|
Tap to rate this tab
# A B C D E F G H I J K L M N O P Q R S T U V W X Y Z