Song name
# A B C D E F G H I J K L M N O P Q R S T U V W X Y Z

Deaf Pedestrians - Listen Up tab

-------------------------------------------------------------------------------
			     Listen Up - Deaf Pedestrians A.K.A Deaf Peds!
-------------------------------------------------------------------------------
Tabbed by:Bullseye
Email: Don't got it

Tuning: Drop D it
Intro/verse part 1-
e|---------------------------------------------------------------------------|
B|---------------------------------------------------------------------------|
G|---------------------------------------------------------------------------|
D|---------------------------------------------------------------------------|
A|--3-3-x-4-4-x-5-5-x-5-5-x-5-x-5-5--------------------------- repeat--------| x6
E|---------------------------------------------------------------------------|
verse part 2
e|---------------------------------------------------------------------------|
B|---------------------------------------------------------------------------|
G|---------------------------------------------------------------------------|
D|--5-5-x-6-6-x-7-7-x-7-7-x-7-x-7-7------------------- Repeat----------------| x3
A|--3-3-x-4-4-x-5-5-x-5-5-x-5-x-5-5------------------------------------------|
E|---------------------------------------------------------------------------|
verse part 3
e|--------------------------------------------------------------------------|
B|--------------------------------------------------------------------------|
G|--5-5-5-6-6-6-7~~~--------------------------------------------------------|
D|--5-5-5-6-6-6-7~~~--------------------------------------------------------|
A|--------------------------------------------------------------------------|
E|--------------------------------------------------------------------------|

Chorus
e|---------------------------------------------------------------------------|
B|---------------------------------------------------------------------------|
G|---------------------------------------------------------------------------|
D|--7-7-7-6-6-5-5----7-7-6-6-5-5----------------------Repeat-----------------| x4
A|--7-7-7-6-6-5-5----7-7-6-6-5-5---------------------------------------------|
E|--7-7-7-6-6-5-5----7-7-6-6-5-5---------------------------------------------|
repeat verse part 2 x3 then repeat verse part 3

other chorus
e|---------------------------------------------------------------------------|
B|---------------------------------------------------------------------------|
G|---------------------------------------------------------------------------|
D|--0-0-0h4-4-4/5-5-5-----------------Repeat---------------------------------| x8
A|--0-0-0h4-4-4/5-5-5--------------------------------------------------------|
E|--0-0-0h4-4-4/5-5-5--------------------------------------------------------|
"industry's dead my friend..."
e|---------------------------------------------------------------------------|
B|---------------------------------------------------------------------------|
G|-5-5-5-6-6-6-7--------------------------Repeat-----------------------------| x4
D|-5-5-5-6-6-6-7-------------------------------------------------------------|
A|-3-3-3-4-4-4-5-------------------------------------------------------------|
E|---------------------------------------------------------------------------|
then repeat verse part 2 x3 and then verse 3 again...
then these in order...
chorus
other chorus

during that last other chorus
e|--------------------------------------------------------------------------|
B|--------------------------------------------------------------------------|
G|--------------------5-5-5-5-5-5-5--------------------5-5-5-5-5-5-5--------|
D|--4h5p4-4h5p4-4h5p4----------------4h5p4-4h5p4-4h5p4----------------------|
A|--------------------------------------------------------------------------|
E|--------------------------------------------------------------------------|
on those last 5 notes gradually bend it a little bit after every note. listen to the 
you'll know what i'm talking about.
e|---------------------------------------------------------------------------|
B|-------------------------------------------------------------   -outro-----|
G|--------------------5-5-5-5-5-5-5---5-5-5-5-5-5-5-5-5-5-5-5-5--555-666-7---|
D|--4h5p4-4h5p4-4h5p4--------------------------------------------555-666-7---|
A|---------------------------------------------------------------333-444-5---|
E|---------------------------------------------------------------------------|
And that sums it up! it's really simple, just listen to the song for rhythm and such. i 
this isn't too tough for you guys to follow, but if you have the cd, it should be pretty 
peace

| /  slide up
| \  slide down
| h  hammer-on
| p  pull-off
| ~  vibrato
| +  harmonic
| x  Mute note
===============================================================================
Tap to rate this tab
# A B C D E F G H I J K L M N O P Q R S T U V W X Y Z