Song name
# A B C D E F G H I J K L M N O P Q R S T U V W X Y Z

Deafheaven - Dream House Ending tab

Basic tab for the end of Dream House by Deafheaven, from their upcoming release: Sunbather.

GUITAR #1:

E------------------------------------------------|
B------------------------------------------------|
G------------------------------------------------|
D---4--4--4--4--4--4---4---4--4--4--4--4--4--4---|
A---5--5--5--5--5--4---2---2--2--2--0--0--0--0---|
D---0--0--0--0--0--0---0---0--0--0--0--0--0--0---|

E------------------------------------------------|
B------------------------------------------------|
G------------------------------------------------|
D---4--4--4--4--4--4---4---4--4--4--4--4--4--4---|
A---5--5--5--5--5--5---5---5--5--5--5--5--5--5---|
D---5--5--5--5--5--5---5---5--5--5--5--5--5--5---|

E------------------------------------------------|
B------------------------------------------------|
G------------------------------------------------|
D---5--5--5--5--5--5---5---5--5--5--5--5--5--5---|
A---4--4--4--4--4--4---4---4--4--4--4--4--4--4---|
D---2--2--2--2--2--2---2---2--2--2--4--4--4--4---|

E------------------------------------------------|
B------------------------------------------------|
G------------------------------------------------|
D---4--4--4--4--4--4---4---4--4--4--4------------|
A---5--5--5--5--5--5---5---5--5--5--5--0--0--0---|
D---5--5--5--5--5--5---5---5--5--5--5--0--0--0---|

E------------------------------------------------|
B------------------------------------------------|
G------------------------------------------------|
D---12-12-12-12--11--9---9--9--9--7--7--7---9----|
A---9--9--9--9---7---5---5--5--5--4--4--4---5----|
D---9--9--9--9---7---5---5--5--5--4--4--4---5----|

E------------------------------------------------|
B------------------------------------------------|
G------------------------------------------------|
D---9--9--9--9--9--9--9--9--9--9--9--9--9--------|
A---5--5--9--9--5--5--5--5--5--5--5--5--5--0--0--|
D---5--5--5--5--5--5--5--5--5--5--5--5--5--0--0--|

E------------------------------------------------|
B------------------------------------------------|
G------------------------------------------------|
D---5--5--5--5--5--5---5---5--5--5--5--5--5--5---|
A---4--4--4--4--4--4---4---4--4--4--4--4--4--4---|
D---2--2--2--2--2--2---2---2--2--2--4--4--4--4---|

E------------------------------------------------|
B------------------------------------------------|
G------------------------------------------------|
D---4--4--4--4--4--4---4---4--4--4--4--4--4--4---|
A---5--5--5--5--5--5---5---5--5--5--5--5--5--5---|
D---5--5--5--5--5--5---5---5--5--5--5--5--5--5---|
Tap to rate this tab
 
# A B C D E F G H I J K L M N O P Q R S T U V W X Y Z