Song name
# A B C D E F G H I J K L M N O P Q R S T U V W X Y Z

Deafheaven - Sunbather tab

Tuning: this is in standard, i have no idea about the actual song

e|12------------------------------------------------------------------------|
B|---10--9b10b9-------------------------------------------------------------|
G|---------------11--9~~----------------------------------------------------|
D|--------------------------------------------------------------------------|
A|--------------------------------------------------------------------------|
E|--------------------------------------------------------------------------|

^^^ TWICE ^^^
and then:

e|----------------------------------------------------------------------------|
B|10--9------------------10--9------------------------------------------------|
G|-------11--9--8--9------------11--9--9~~------------------------------------|
D|----------------------------------------------------------------------------|
A|----------------------------------------------------------------------------|
E|----------------------------------------------------------------------------|
Tap to rate this tab
# A B C D E F G H I J K L M N O P Q R S T U V W X Y Z