Song name
# A B C D E F G H I J K L M N O P Q R S T U V W X Y Z

Deafheaven - Sunbather tab

Sunbather by Deafheaven
(in progress / partial tab)

Listen for the timing and changes. Most of the chords
are picked very fast with heavy delay, reverb, and a bit
of distortion/crunch to give that "wall of sound" effect.

Part A (x2)

Guitar I

e ------------------------------------------------------------|
B ------------------------------------------------------------|
G ------------------------------------------------------------|
D ---6-----6-----6-----6-----6----6-----6-----6---------------|
A ---7-----7-----7-----7-----7----7-----7-----6---------------|
E ---9-----9-----0-----0-----4----4-----7-----7---------------|

Guitar II

e --------------------------------------------------------------|
B --------------------------------------------------------------|
G ------------9--11--13--14--8--9--11--16-----------------------|
D ---6----^7--------------------------------6----6----6----6----|
A ---7--------7--9---11--12--6--7--9---14---7----7----7----6----|
E ---9--------0--0---0---0---0--0--0---0----4----4----7----7----|

(last measures before next verse)

Guitar I

e ------------------------------------------------------------|
B ------------------------------------------------------------|
G ------------------------------------------------------------|
D ---6-----6-----6-----6-----6----6-----6-----6---------------|
A ---7-----7-----7-----7-----7----7-----7-----6---------------|
E ---9-----9-----0-----0-----4----4-----7-----7---------------|

Guitar II
e --------------------------------------------------------------|
B --------------------------------------------------------------|
G ------------9--11--13--14--8--18--20--21----------------------|
D ---6--^-7-----------------------------------6----6----6----6--|
A ---7--------7--9---11--12--6--16--18--19----7----7----7----6--|
E ---9--------0--0---0---0---0--0---0---0-----4----4----7----7--|

-----------------------------------------------------------------------------

Part B (x2)

Guitar I, II

e --------0---------0---------0---------0-------------------|
B ----------0---------0---------0---------------------------|
G ----------------------------------------------------------|
D ---2-2-------4-4-------6-6-------6-6----------------------|
A -----------------------7-7-------7-7----------------------|
E ---5-5-------5-5-------5-5-------5-5----------------------|

Guitar I

e ----------------------------------------------------------|
B ----------------------------------------------------------|
G ----------------------------------------------------------|
D ---6-----------------------------7------------------------|
A ---7-----------------------------6------------------------|
E ---0-----------------------------0------------------------|

Guitar II

e ----------------------------------------------------------|
B ----------------------------------------------------------|
G ----------------------------------------------------------|
D ---6-----------------------------7--------7-6-7-----------|
A ---7-----------------------------6------------------------|
E ---0-----------------------------0------------------------|

-----------------------------------------------------------------------------

Part C (x1)

Guitar I

e ------------------------------------------------------------------|
B ------------------------------------------------------------------|
G ------------------------------------------------------------------|
D ---6-------------7--------------7-------------6-------------------|
A ---7-------------7--------------7-------------7-------------------|
E ---9-------------7--------------5-------------5-------------------|

Guitar II

e -----------------------------------------------------------------|
B -----------------------------------------------------------------|
G ---9---11---8---9---11---8------13-----16-----11-----8-----------|
D -----------------------------------------------------------------|
A ---7---9----6---7---9----6------11-----14-----9------6-----------|
E -----------------------------------------------------------------|

-----------------------------------------------------------------------------

Part D

(clean guitar)

-----------------------------------------------------------------------------

Part E

Guitar I, II

e ------------------------------------------------------------|
B ------------------------------------------------------------|
G --------------------------------6---------------------------|
D ---6-------------6----------------------6-------------------|
A ---7-------------7--------------7-------7-------------------|
E ---0-------------9--------------5-------5-------------------|

-----------------------------------------------------------------------------

Part F

Guitar I

e -------------------------------------------------------------------|
B -------------------------------------------------------------------|
G -------------------------------------------------------------------|
D ---6-------------7--------------6--------6-----4-------------------|
A ---7-------------7--------------7--------7-----4-------------------|
E ---9-------------7--------------5--------4-----2-------------------|

-----------------------------------------------------------------------------

Part G

Guitar I

e ---------------------------------------------------------------------------|
B ---------------------------------------------------------------------------|
G -----------------------------------------------------6---------------------|
D ---6-----------------------------6----6----------------------6-------------|
A ---7-----------------------------6----7--------------7-------7-------------|
E ---0-----------------------------0----9--------------5-------5-------------|

Guitar II

e ---12--------------12------------------------------------------------------|
B -----10-9^10^9-7-----10-9^10^9-7-------------------------------------------|
G ----------------9----------------9-----------------------------------------|
D --------------------------------------7-6------------7-6-------------------|
A ------------------------------------------9-7-6----------9-7-6-------------|
E ---------------------------------------------------------------------------|
Tap to rate this tab
 
# A B C D E F G H I J K L M N O P Q R S T U V W X Y Z