Song name
# A B C D E F G H I J K L M N O P Q R S T U V W X Y Z

Dean Geyer - Unforgetable tab

capo - 3rd fret
normal tunning

intro

e-0---0-0-0-0--0---0-0-0-0-0--0---0-0-0-0---2--0--0----|
b-3---3-3-3-3--3---3-3-3-3-3--3---3-3-3-3---2--0--3----|
g-1h2-2-1-2-1--1h2-2-1-1-2-1--1h2-2-1-2-1---2--1--2----|
d-0---0-2-2-2--0---0-0-0-0-0--0---0-2-2-2---4--2--0----|
a-------0-0-0----------2-2-2--------0-0-0---4--2-------|
e----------------------0-0-0----------------2--0-------|

verse

the verse is the same as the intro

chorus

e-0-0-2--0-0-2--0-0---0---0---0---0------|
b-3-0-2--3-0-2--3-0---3---3---3---3------|
g-2-1-2--2-1-2--2-1---1h2-1h2-1h2-1h2----|
d-0-2-4--0-2-4--0-2---0---0---0---0------|
a---2-4----2-4----2----------------------|
e---0-2----0-2----0----------------------|

solo/interlude/bridge thingy

i haven't worked out the solo yet but i will edit this tab when i have worked it out but 
backing chords are:

e-2-0-0-0-----------|
b-2-3-0-0--x4-------|
g-2-2-2-1-----------|
d-4-0-2-2-----------|
a-4---0-2-----------|
e-2-----0-----------|

the 2nd half of the solo/interlude bridge thingy is a tab of the chorus chords and they 
slightly different to the chords

e-----0--------0--------0--------0----------|
b--------------------------------------x2---|
g---2---2-----------------------------------|
d-0-----------------------------------------|
a------------2---2----4---4----2---2--------|
e----------0--------2--------0--------------|

then do the whole chorus again with the hammer on's don't forget

and the chorus again one more time but hold the hammer on section at the end of the 
twice as long so you do 8 hammer on's

all done

good luck and enjoy

contact me at godisback4ever_17@hotmail.co.uk if you need anything

:)
Tap to rate this tab
 
# A B C D E F G H I J K L M N O P Q R S T U V W X Y Z