Song name
# A B C D E F G H I J K L M N O P Q R S T U V W X Y Z

Dean Geyer - We Share The Same Space tab

-------------------------------------------------------------------------------
			     SONG NAME - Band Name
-------------------------------------------------------------------------------
Tabbed by: chris :D
Email: godisback4ever_17@hotmail.co.uk

Tuning: regular

intro and chorus
e|---------4---4------------| this part at the                            
B|--------------------------| beginning has echo
G|-5-6-5h6---6--------------|
D|--------------------------|
A|--------------------------|
E|--------------------------|

e|-1--2--4--6--4--2--4--4--------------------------------------------------|
B|-1--2--4--6--4--2--4--4--------------------------------------------------|
G|-1--3--5--6--6--3--5--6--------------------------------------------------|
D|-3--4--6--8--6--4--6--6--------------------------------------------------|
A|-3--4--6--8--4--4--6--4--------------------------------------------------|
E|-1--2--4--6-----2--4-----------------------------------------------------|

verse 1
e|-2--4------0--2----------------------------------------------------------|
B|-2--4--x3--2--2----------------------------------------------------------|
G|-3--5------2--4----------------------------------------------------------|
D|-4--6------2--4----------------------------------------------------------|
A|-4--6------0--2----------------------------------------------------------|
E|-2--4--------------------------------------------------------------------|

chorus above

verse 2 same as verse 1

chorus again

interlude
e|-6--4------4-------------------------------------------------------------|
B|-6--4--x2--4-------------------------------------------------------------|
G|-6--5------3-------------------------------------------------------------|
D|-8--4------6-------------------------------------------------------------|
A|-8--4------6-------------------------------------------------------------|
E|-6--2------4-------------------------------------------------------------|

then chorus a few more times

all done good luck email me if ya need anymore tabs done


bye
Tap to rate this tab
# A B C D E F G H I J K L M N O P Q R S T U V W X Y Z