Song name
# A B C D E F G H I J K L M N O P Q R S T U V W X Y Z

Dean Martin - Everybody Loves Somebody tab

   ____________________________
  / Dean Martin               /  I actually got to know this song through an old
 / Everybody Loves Somebody  /  Danish cover-classic recorded by Gustav Winckler
/___________________________/  in '75. The title directly translated would be:
                              "Save a little smile for a rainy day."

This song is in the key of Eb major, but since that key doesn't suit the
guitar very well, I suggest you play in D major with capo on the 1st fret:


[A]
  D       D(#5)     G       B7/D#     Em      Em(#5)    A7
|---2-0-----2-0---|---------2-------|---3-2-0---3-2-0-|-0---------------|
|-3-----3-3-----3-|-0-0-----0-------|-0-------1-------|-2---------------|
|-2-------3-------|-0-------2-------|-0-------0-------|-0---------------|
|-0-------0-------|-0-------1-------|-2-------2-------|-2---------------|
|-----------------|-x-------x-------|-x-------x-------|-0---------0-2-4-|
|-----------------|-3-------2-------|-0-------0-------|-----------------|

  D      F#m7 Fm7   Em7               A13     A13(b9)   D
|-2---------------|-0---------------|-2-------2-------|-2---------------|
|-3------10---9---|-8-10-8------10--|-2-------2-------|-3---------------|
|-2-------9---8---|-7---------------|-4-------3-------|-2---------------|
|-0------11--10---|-9---------------|-5-------5-------|-0---------------|
|---------9---8---|-7---------------|-0-------0-------|-----------------|
|-----------------|-0---------------|-----------------|-----------------|


[B]
  D       G6/D      D      D6  D7     G       Gm(maj7)  G6    F#7(#9)-b9
|-2-------0-------|-2------2---2----|-3-0-2-3-2---0-2-|-0-------5---3---|
|-3---2-3-3-------|-3------0---1----|-0-------3-3-----|-0-------2---2---|
|-2-------4-------|-2------2---2----|-0-------3-------|-0-------3---3---|
|-0-------0-------|-0------0---0----|-0-------0-------|-0-------2---2---|
|-----------------|-----------------|-x-------x-------|-x-------x---x---|
|-----------------|-----------------|-3-------3-------|-3-------2---2---|

  Bm    -maj7 -7    E13               A11    Cdim/A     A9      A7b9
|-2-2-0---2---0---|-2---------------|-0------x--------|-0-------0-------|
|-3-----3-3---3-3-|---2-------------|-3------7--------|-8-------8-------|
|-4-------3---2---|-1---------------|-4------8--------|-6-------6-------|
|-4-------4---4---|-0---------------|-5-----10--------|-9-------8-------|
|-2-------2---2---|-2---------------|-0------0--------|-0-------0-------|
|-----------------|-0---------------|-----------------|-----------------|


 a nice little variation:
  D       D(#5)     G6
|-5-------6-------|-0-------:
|-7-7-5---7-7-5---|-0-0-----:
|-7-----7-7-----7-|-0-------:
|-0-------0-------|-0-------:
|-----------------|-x-------:
|-----------------|-3-------:


+--------------------------------------------------------------------------+
Jon Sebastian Frederiksen - 14th /September /11
Just mail me at Maitinin@gmail.com with questions, comments and corrections!
Tap to rate this tab
 
# A B C D E F G H I J K L M N O P Q R S T U V W X Y Z