Song name
# A B C D E F G H I J K L M N O P Q R S T U V W X Y Z

Dean Martin - Aint That A Kick In The Head chords

Highlighted       Show chord diagrams
Ain't That a Kick in the Head?
Dean Martin (1960)

A7+:     5x5667
[ch]Gadd9/A[/ch]: 5x543x
F#m7b5:  x9(10)9(10)x
Gm6:     x(10)x(12)(11)(10)

e|-5--5-4--5--5-4--5--5-4-5--------------------------------|
B|-7--7-6--7--7-6--7--7-6-7--------------------------------|
G|-7--7-6--7--7-6--7--7-6-7-5-4-3-2--2-1--2--2-1--2--2-1-2-|
D|--------------------------7-6-5-4--4-3--4--4-3--4--4-3-4-|
A|--------------------------------5--5-4--5--5-4--5--5-4-5-|
E|---------------------------------------------------------|

    D         D/C#    D/B  D/A
How lucky can one guy be?
  D              D/C#       D/B  D/A
I kissed her and she kissed me
         D          D/A
Like the fella once said,
D             D#dim7      Em
"Ain't that a kick in the head?"

    Em          Em/B    Em    Em
The room was completely black
  Em             Em         Em/B   Em
I hugged her and she hugged back
         A7           [ch]A7/E[/ch]
Like the sailor said, quote,
A7            [ch]A7/B[/ch] A7/C#  D     D/A D
"Ain't that a hole in the boat?"

              F#7     [ch]F#7/C#[/ch]
My head keeps spinnin'
F#7               [ch]F#7/C#[/ch]  Bm   Bm/F#
I go to sleep and keep grinnin'
Bm   Bm/F#            E7   [ch]E7/B[/ch]
If this is just the beginnin'
E7   [ch]E7/B[/ch]           A7+
My life is gonna be beautiful

     D         D/C#     D/B  D/A
I've sunshine enough to spread
     F#7  [ch]F#7/D#[/ch]   [ch]F#7/C#[/ch] B7
It's just like the fella said
         E7
"Tell me quick
             [ch]Gadd9/A[/ch]     D
Ain't love a kick in the head?"

e|-4-5--5-4--5--4--5--5-4-4-5-----------------------------|
B|-6-7--7-6--7--6--7--7-6-6-7--6-7--7-6--7--6--7--7-6-6-7-|
G|-6-7--7-6--7--6--7-----------6-7--7-6--7--6--7--7-6-6-7-|
D|-----------------------------6-7--7-6--7--6--7----------|
A|--------------------------------------------------------|
E|--------------------------------------------------------|

         D          D/A
Like the fella once said,
D             D#dim7      Em    A7
"Ain't that a kick in the head?"

e|-6-7--7-6--7--6--7--7-6-6-7-----------------------------|
B|-7-8--8-7--8--7--8--8-7-7-8--7-8--8-7--8--7--8--8-7-7-8-|
G|-8-9--9-8--9--8--9-----------8-9--9-8--9--8--9--9-8-8-9-|
D|-----------------------------7-9--9-7--9--7--9----------|
A|--------------------------------------------------------|
E|--------------------------------------------------------|

         A7           [ch]A7/E[/ch]
Like the sailor said, quote,
A7            [ch]A7/B[/ch] A7/C#  D     D/A D
"Ain't that a hole in the boat?"

              F#7     [ch]F#7/C#[/ch]
My head keeps spinnin'
F#7               [ch]F#7/C#[/ch]  Bm   Bm/F#
I go to sleep and keep grinnin'
Bm   Bm/F#            E7   [ch]E7/B[/ch]
If this is just the beginnin'
E7   [ch]E7/B[/ch]           A7+
My life is gonna be beautiful

      D          D/C#     D/B  D/A
She's telling me we'll be wed
      B7           [ch]B7/F#[/ch]     B7  [ch]B7/F#[/ch]
She's picked out a king size bed
  E7                A7               F#m7b5 B7
I couldn't feel any better or I'd be sick
        E7                     Gm6
Tell me quick, oh ain't love a kick?
        E7                  [ch]Gadd9/A[/ch]
Tell me quick, ain't love a kick in the

e|-5-4-4-5-5-4-4-5-5-4-5-------------------5---5--10--|
B|-7-6-6-7-7-6-6-7-7-6-7--3--5-6-8--6-5-3--6---6--10--|
G|-7-6-6-7-7-6-6-7-7-6-7--4--6-7-9--7-6-4--6---6--11--|
D|------------------------5--7-8-10-8-7-5---------12--|
A|----------------------------------------------------|
E|----------------------------------------------------|
   head?
Tap to rate this tab
# A B C D E F G H I J K L M N O P Q R S T U V W X Y Z