Guitaretab - guitar tabs
Song name
# A B C D E F G H I J K L M N O P Q R S T U V W X Y Z

Dear And The Headlights - Daysleeper tab

Hey, i noticed there wasn't a tab for this song so i tried to tab it out myself, not 
if it's right but it sounds decent to me.
I'm sure there's alot of work to do with it so thanks for any help.
Use Chordbook.com for chord reference, i had no idea what Cadd9 was either.
It's a great song and it's fun to play.


Em - G6
...........(Cmaj7)
E-------------------------------------------|
B---------------0---------0----------0------|
G-------------------0---------0----------0--|
D------4----------2---------2----------2----|  x2
A--3/5------3-3-------3-3--------3-3--------|
E-------------------------------------------|


Em
havenít seemed, havenít seen happy
---------G6
is gonna come to me, when it does
--------------------(Cmaj7)
i donít know where iíll keep it at all

..........(Cmaj7)
E---------------------------------------------------|
B---------------0---------0----------0---------0----|
G-------------------0---------0----------0----------|
D------4----------2---------2----------2---------2--|  x2
A--3/5------3-3-------3-3--------3-3-------3-3------|
E---------------------------------------------------|
[ Tab from: http://www.guitaretab.com/d/dear-and-the-headlights/165742.html ]
Em
in my room, where i sleep to keep away bad dreams
G6
in my heart, i donít know
-----------------------Cadd9
loneliness takes up all that space

D........Cadd9
when iím feeling low iíll
*Em7.......................D.........Cadd9 - D - Cadd9
take out my check book and buy a new car
D.......Cadd9
Oh that sweet distraction
Em7.....................D......Cadd9 - D - Cadd9
comfortable discontent, Iím in love.

*Em7 is played like*

----0-0----0-0---0-0---|
----7-7----7-7---7-7---|
----0-0----0-0---0-0---|
----2-2----2-2---2-2---|
-2-------2-----2-------|
-0-------0-----0-------|

(INTRO)
la la laaa..


Andrea's in the room kicking her shoes off
sing along, sing along
shaking our blues off we sing
iíve come up with a plan so brilliant
like Times Square, mid-day
thoughts are directed in every way

so Iíll keep my eyes on the billboard ads displayed
kill my heart, no fix it up
Oh those sweet distractions, inviting discontent, Iím in love.

(2:41)
E---------------------------|
B---------------------------|
G--12-11-9------------------|
D-----------12-10-9-9p7-----|
A---------------------------|
E---------------------------|

..basically it.
Sorry i didn't figure out the distorted parts and the really quiet part
i don't know if the little riff thing is right either..
help me out!


ya tebya lyublyu, liza ;]
..SCHLIEENN!
Related for Daysleeper tab