Song name
# A B C D E F G H I J K L M N O P Q R S T U V W X Y Z

Dear And The Headlights - Parallel Lines tab

Tuned down a half step.
Finger pick

Intro:
Eb---------------------------             |-------------|
Bb--3p-1p-0------------------             |-------------|
Gb----------0----4p-2p-0-----             |-------------|
Db------------------------0--             |-------------|
Ab---------------------------             |-------------|
Eb---------------------------             |--3--3--3--3-|
                                          keep playing this last G note

=========================================================================
until...MAIN PART
--------------------------------------------------------------------------|
--------------------------------------------------------------------------|
--9-----9--9--8--8--7--7-----7--7--6--6--5--4-----4--4--5--7--11--9-----9-|
--------------------------------------------------------------------------|
--------------------------------------------------------------------------|
--8--8-----8-----8-----7--7-----7-----5--5--3--3-----3-----7------8--8----|

---------------------------|
--3p-1p-0------------------|
----------0----4p-2p-0-----|
------------------------0--|
---------------------------|        repeat this section
---------------------------|

==========================================================================
(this played with a pick)
--------7----------5---------5---3-5-7/8-7-5\3-3--------|
--3/5----------3---------1-------3----------------------|
------0----------0---------0-----0----------------------|
--------------------------------------------------------|
--------------------------------------------------------|
--------------------------------------------------------|
repeat this also

==========================================================================
Outro:

------------------------|------------------------------|
------------------------|------------------------------|
--9-----9----7-----7----|--4---------------------------|
----------------0----0--|------------------------------|
----10----10------------|------------------------------|
--8----8-----7----7-----|--3--3--3--3------------------|
Tap to rate this tab
# A B C D E F G H I J K L M N O P Q R S T U V W X Y Z