Song name
# A B C D E F G H I J K L M N O P Q R S T U V W X Y Z

Dear And The Headlights - Run In The Back tab

Well i've decided i'm going to do my own version of this song, it's really quite easy.. 
enjoy

                          Run In The Front
                                By:
                       Dear And The Headlights


          Intro/Verses

   D          Asus4         Gmaj7           G
e:-2------------0------------2--------------2--------------------------|
B:-3------------3------------3--------------3--------------------------|
G:-2------------2------------0--------------0--------------------------|
D:-0------------2------------0--------------0--------------------------|
A:-x------------0------------2--------------x--------------------------|
E:-x------------x------------x--------------3--------------------------|

          Chorus

e:-----2--------2--------2--------2--------0--------0-------0--------0---|
B:-------3--------3--------3--------3--------3--------3-------3--------3-|
G:---2--------2--------2--------2--------2--------2-------2--------2-----|
D:-0--------0--------0--------0-----------------2-------2--------2-------|
A:-------------------------------------0---------------------------------|
E:-----------------------------------------------------------------------|

e:-----2--------2--------2--------2---------2-------2-------2-------2---|
B:-------3--------3--------3--------3---------3-------3-------3-------3-|
G:---0--------0--------0--------0---------0-------0-------0-------0-----|
D:----------------------------------------------------------------------|
A:-2--------2--------2--------2-----------------------------------------|
E:--------------------------------------3-------3-------3-------3-------|


For the second chorus, it's the same as the first with the exception of the Asus4 
instead of only playing the open A string once you play it 3 times and then on the fourth 
to the D string 2nd fret (E note)
Just a minor variation.. other than that.. thats pretty well the entire song!

Kyle.
Tap to rate this tab
 
# A B C D E F G H I J K L M N O P Q R S T U V W X Y Z