Song name
# A B C D E F G H I J K L M N O P Q R S T U V W X Y Z

Dear Jane I - Stayed Up All Night tab

I know this isn't perfect but there are no tabs out there for this.
Feel free to post corrections or e-mail them to me!

Check out Dear Jane I... at http://www.dearjanei.com/

Awesome song (even though its slightly emo)


Standart tuning both guitars...


Intro-

-----------------------------------------------------------------0---------------------|
--------2--------2-----------2---------2-------------2------2--------------2-------2---|
-----2-----2--2-----------2-----2--2--------------2----2-2-------------2-----2--2------|
--0----------------0-------------------------------------------------------------------|
-----------------------4-------------------4--0--------------------------------------0-|
---------------------------------------------------------------------------------------|

-----------------------------------------------------------------0---|
--------2--------2-----------2---------2-------------2------2--------|
-----2-----2--2-----------2-----2--2--------------2----2-2-----------|
--0----------------0-------------------------------------------------|
-----------------------4-------------------4--0----------------------|
---------------------------------------------------------------------|

Riff 1-

An other night falls, on dissapointment...

Guitar 1--Distortion
----------------------------------------------------------------------------|
----------------------------------------------------------------------------|
---------2-2-2----------2-2-2-----------------14--14-14-14-13-13-13---------|
-0-0-0-0-----------------------2-2-2-2-2-2-2--------------------------------|
----------------4-4-4-4-----------------------------------------------------|
----------------------------------------------------------------------------|
PM...........................................

Guitar 2--Distortion
----------------------------------------------------------------------------|
----------------------------------------------------------------------------|
-7-7-7-7-7-7-7--7-7-7-7-7-7-7--2-2-2-2-2-2-2--------------------------------|
-7-7-7-7-7-7-7--7-7-7-7-7-7-7--2-2-2-2-2-2-2--14--14-14-14-13-13-13---------|
-5-5-5-5-5-5-5--4-4-4-4-4-4-4--0-0-0-0-0-0-0--------------------------------|
----------------------------------------------------------------------------|

Riff 2-

I am not who i prommised I become...

Guitar 1-- Clean
-----------------------------------------------------------------------------------------------------|
-----14-----------14----------14------------14---------14-----------14----------14------------14-----|
---------14-----------14----------14-----------14----------14-----------14----------14-----------14--|
-12-----------12----------12-----------12----------12-----------12----------12-----------12----------|
-----------------------------------------------------------------------------------------------------|
-----------------------------------------------------------------------------------------------------|


Guitar 1
-----------------|
-14--------------|
-----14------14--|
---------12------|
-----------------|
-----------------|

Guitar 2-- Clean
------------------|
-2-------2--------|
---2-------2------|
-----0-------0----|
------------------|
------------------|


Guitar 1-- Clean
-----------------------------------------------------------------------------------------------------|
-----14-----------14----------14------------14---------14-----------14----------14------------14-----|
---------14-----------14----------14-----------14----------14-----------14----------14-----------14--|
-12-----------12----------12-----------12----------12-----------12----------12-----------12----------|
-----------------------------------------------------------------------------------------------------|
-----------------------------------------------------------------------------------------------------|

Guitar 2--Distortion
-----------------------------------------------------------------------------------------------------|
-----------------------------------------------------------------------------------------------------|
-----------------------------------------------------------------------------------------------------|
-7--7---7-----7--7---7----7--7---7-----7--7---7----2--2--2--2---2---2---2----2----2--------2--2---2--|
-5--5---5-----5--5---5----4--4---4-----4--4---4----0--0--0--0---0---0---0----0----0--------0--0---0--|
-----------------------------------------------------------------------------------------------------|
PM....       ......       .....        .....       ...........      ..........             .....

Last time round the first guitar repeats what its doing and the second plays this...
---------------------------------------------------------------------------------|
---------------------------------------------------------------------------------|
---------------------------------------------------------------------------------|
-7-7-7-7-7-7-7-7-9-9-9-9-9-9-9-9-14-14-14-14-14-14-14-14-14-14-14-14-14-14-14-14-|
-5-5-5-5-5-5-5-5-7-7-7-7-7-7-7-7-12-12-12-12-12-12-12-12-12-12-12-12-12-12-12-12-|
---------------------------------------------------------------------------------|

After this it plays Riff1 again with no vocals
Then back to Riff2 with the lyrics " I am the steam that escapes in a knife wound on alleyway..."


Then the chorus "I am not who i prommised I become..." is played over Riff1

Riff3-

Her breathing is silent...

Guitar1--Distortion
-----------------|
-----------------|
---------7-7-6-6-|
-0-0-0-0---------|
-----------------|	Repeat over and over again
-----------------|
PM...............

Guitar2--Clean
--------------|
-2-----2------|		Played over the first guitar after a while...
---2-----2----|
-----0-----0--|
--------------|
--------------|

Then the chorus for the last time...

Guitar 1--Distortion
-------------------------------------------------------------------------------|
-------------------------------------------------------------------------------|
---------2-2-2----------2-2-2-------------------14--14-14-14-13-13-13----------|
-0-0-0-0-------------------------2-2-2-2-2-2-2---------------------------------|
-----------------4-4-4-4-------------------------------------------------------|
-------------------------------------------------------------------------------|
PM............................................

Guitar 2--Distortion
----------------------------------------------------------------------------|
----------------------------------------------------------------------------|
-7-7-7-7-7-7-7-7-7-7-7-7-7-7-7-7-2-2-2-2-2-2-2-2-14--14-14-14-14-14-14------|
-7-7-7-7-7-7-7-7-7-7-7-7-7-7-7-7-2-2-2-2-2-2-2-2-14--14-14-14-14-14-14------|
-5-5-5-5-5-5-5-5-4-4-4-4-4-4-4-4-0-0-0-0-0-0-0-0-12--12-12-12-12-12-12------|
----------------------------------------------------------------------------|

Guitar1
-------------------------------------------------------|
-------------------------------------------------------|
-14-14-14-14-14-14-14-14-14-14-14-14-14-14-14-14-14-14-|
-12-12-12-12-12-12-12-12-12-12-12-12-12-12-12-12-12-12-|
-------------------------------------------------------|
-------------------------------------------------------|

Guitar2
------------------------------------------------------|
------------------------------------------------------|
-7---7---7-----7---7---7-----2---2---2-----2---2---2--|
-7---7---7-----7---7---7-----2---2---2-----2---2---2--|
-5---5---5-----4---4---4-----0---0---0-----0---0---0--|
------------------------------------------------------|

Both Guitars {the screaming starts here}

----------------------------------------------------------|
----------------------------------------------------------|
-7-7-7-7-7-7-7-7-7-7-7-7-7-7-7-7-2---2-2--2---2-2---2-2---|
-7-7-7-7-7-7-7-7-7-7-7-7-7-7-7-7-2---2-2--2---2-2---2-2---|
-5-5-5-5-5-5-5-5-4-4-4-4-4-4-4-4-0---0-0--0---0-0---0-0---|
----------------------------------------------------------|


Pretty much both guitars play this at the end in clean...
Let all notes ring
--------------------------------0---------------|
------------------------2--------2--------------|
-----7-------7--------2-----------2-------------|
---7--------7-------0--------------2------------|
-5--------4-------------------------0-----------|
------------------------------------------------|


The bass plays something like this at the end...
-------------------------------|
-------------------------------|
-------------------------------|
-7---9---12--------7---9---12--|
-------------------------------|
-------------------------------|

I hope you've enjoyed my tab

Suggestions or questions send to: batieatworld@gmail.com
Tap to rate this tab
# A B C D E F G H I J K L M N O P Q R S T U V W X Y Z