Song name
# A B C D E F G H I J K L M N O P Q R S T U V W X Y Z

Dear Juliet - Lullaby tab

Pretty simple pattern.

   G       Am      C       D
e|-------------------------------2-|
B|-------0-------1-------1-----3---|
D|-----0-------2-------0-----2-----|
G|---0-------2-------2-----0-------|
A|---------0-------3---------------|
E|-3-------------------------------|

So thats the pattern, so lets start the song.



e|-------------------------------2-|
B|-------0-------1-------1-----3---|
D|-----0-------2-------0-----2-----|
G|---0-------2-------2-----0-------|
A|---------0-------3---------------|
E|-3-------------------------------|  X10

e|-----------------0---------2-|
B|-------0---------1---------3-|
G|-----0-----------0---------2-|
D|---0-------------2---------0-|
A|-----------------3-----------|
E|-3---------------------------|

e|--3---------0---------2-|
B|--0---------1---------3-|
G|--0---------0---------2-|
D|--0---------2---------0-|
A|--2---------3-----------|
E|--3---------------------| X2

e|--3---0---2-2-2-2-|
B|--0---1---3-3-3-3-|
G|--0---0---2-2-2-2-|
D|--0---2---0-0-0-0-|
A|--2---3-----------|
E|--3---------------|

e|-------------------------------2-|
B|-------0-------1-------1-----3---|
D|-----0-------2-------0-----2-----|
G|---0-------2-------2-----0-------|
A|---------0-------3---------------|
E|-3-------------------------------|  X4

e|-------------------------------2-|
B|-------0-------1-------1-----3---|
D|-----0-------2-------0-----2-----|
G|---0-------2-------2-----0-------|
A|---------0-------3---------------|
E|-3-------------------------------|  X8

e|-----------------0---------2-|
B|-------0---------1---------3-|
G|-----0-----------0---------2-|
D|---0-------------2---------0-|
A|-----------------3-----------|
E|-3---------------------------|

e|--3---------0---------2-|
B|--0---------1---------3-|
G|--0---------0---------2-|
D|--0---------2---------0-|
A|--2---------3-----------|
E|--3---------------------|  X2

e|--3--0---2-2-2-2-|
B|--0--1---3-3-3-3-|
G|--0--0---2-2-2-2-|
D|--0--2---0-0-0-0-|
A|--2--3-----------|
E|--3--------------|

e|-------------------------------2-|
B|-------0-------1-------1-----3---|
D|-----0-------2-------0-----2-----|
G|---0-------2-------2-----0-------|
A|---------0-------3---------------|
E|-3-------------------------------|

e|-------------------------------------------------0-----------------2---3-|
B|-----------0--------------1------------------1----------------3--------0-|
G|--------0-------------2-----------------0-----------------2------------0-|
D|-----0------------2----------------2------------------0----------------0-|
A|--------------0---------------3----------------------------------------2-|
E|--3--------------------------------------------------------------------3-|

Thats it, enjoy and please rate.
Tap to rate this tab
# A B C D E F G H I J K L M N O P Q R S T U V W X Y Z