Song name
# A B C D E F G H I J K L M N O P Q R S T U V W X Y Z

Dear Juliet - If The Moon Fell Down Tonight tab

Ok, I'm aware that there are others, but this was requested
because... well because it was. So yes, on with the show.

Tuning: Capo Fourth.

#Verse#
 C                              Gadd11
e|----------------------------------------------------|
b|-------1----1------1----------------1---1-----1-----|
g|---------0----0------0----------------0---0-----0---|
d|---0h2----------2------2--X2----------------0-----0-|
a|-3------------------------------0h2-----------------|
e|------------------------------3---------------------|
                                                                X2

  F                       Gadd11
e|----------------------------------------------------|
b|-------1---1-----1------------1----1-----1----------|
g|---0h2---2---2-----2------------0----0-----0--------|
d|---------------3-----3-----------------0-----0------|
a|--------------------------0h2-----------------------|
e|-1----------------------3---------------------------|

#Chorus#

    Am7  Gadd11  F
e|-----0---------1~----|
b|-----1----1----1~----|
g|-----0----0----2~----|    X3
d|-----2----0----3~----|
a|--0-------2----3~----|
e|--------3----1-------|

#Bridge#  (evidently not exact)


e|-1-----------------------------------------------------------|
b|-1---1---1---------------------------1---1---1---1---1---1---|
g|-2---0---0--(X3. but third time C----0---0---0---0---0---0---|
d|-3---0---2-  chord does this -->)----2---2---2---2---2---0---|
a|-3---2---3-------------------------3---2---0-------------2---|
e|-1---3-----------------------------------------3---1-----3---|

then, obviously, chorus again.
Jobs a good'un.
Tap to rate this tab
# A B C D E F G H I J K L M N O P Q R S T U V W X Y Z