Song name
# A B C D E F G H I J K L M N O P Q R S T U V W X Y Z

Dear Juliet - Summers Song tab

Dear Juliet - Summer's Song
I havent found a good tab for this song, so i made this one. Its my first tab, but i 
its correct ;)
at the second part of the second chorus i didnt know how to wirte down the right rythm 
play the chords, but i guess you can find it out by yourself. and pls just comment the 
and not my english ;)


----------------------------------------------------------------------------
			     Summer's Song - Dear Juliet
----------------------------------------------------------------------------
Tabbed by: MoftyKeks
Email: agkunz@t-online.de

Tuning: Standard

Verse:
|-------0---------------2-0--------------0---------------0--------|
|---3-------3---3---3---------3------3-------3---3-3---3----------|
|-----2---------------2----------------2-------2-----2------------|
|-0-----------0---------------------------------------------------|
|-----------------4----------------2---------------0--------------|
|-----------------------------------------------------------------|


 -----------------------------------------------------------------|
 -----3-------3---------3-------------3-------3---3---------------|
 ---0-------2---------2-------------0-------2-----2---------------|
 -------------------0-----------------------------0---------------|
 -----------------------------------------------------------------|
 -0-------2-------3---------------0-------2-------3---------------|


 -------0-----------------|
 -3---3-------3h5p3-2-----|
 -2-2---------------------|
 -0-----------------------|
 -------------------------|
 -3-----------------------|


1st Chorus:
|-0---------------0---------------0-------0-------0-------0-----|
|-3---------------3---------------3-------3-------3---------3---|
|-2---------------2---------------2-------2-------2-----------2-|
|-0---------------0---------------0-------2-------0-------------|
|-----------------4---------------2-------0---------------------|
|---------------------------------------------------------------|


Solo:
|-3-2-------------3-2-------------2-0---------------------------|
|-----3---------------3---------------3-----------2-------------|
|---------------------------------------------------------------|
|---------------------------------------------------------------|
|---------------------------------------------------------------|
|---------------------------------------------------------------|


 ---------------------------------------------------------------|
 -2h3-----3h5-----5h7-------------3h5-----5h7-----8-----7---3---|
 ---------------------------------------------------------------|
 ---------------------------------------------------------------|
 ---------------------------------------------------------------|
 ---------------------------------------------------------------|


2nd Chorus:
|-0--0---0---0----0--0---0---0----0--0----0-------0--------0----|
|-3----3---3---3--3----3---3---3--3----3--3----3--3---------3---|
|-2--------------22--------------22-------2--2----2----------2--|
|-0---------------0---------------0-------2-------0-----------0-|
|-----------------4---------------2-------0---------------------|
|---------------------------------------------------------------|


 -00000000000000000000000000000000000000000000000000000000000000|
 -33333333333333333333333333333333333333333333333333333333333333|
 -22222222222222222222222222222222222222222222222222222222222222|
 -0000000000000000--------------------------------00000000000000|
 -----------------44444444444444442222222200000000--------------|
 ---------------------------------------------------------------|
(it's difficult to write down the exact rythm the chords are played, so you have to find 
own here ;) )


Bridge:
|----------------------------------------------------------------|
|-3--3----3--3----3--3----3--3----3--3----3--3----3--3----3--3---|
|----------------------------------------------------------------|
|-0--0----------------------------0--0---------------------------|
|---------0--0----2--2----0--0------------0--0----2--2----0--0---|
|----------------------------------------------------------------|


 ----------------------------------------------------0---0-------|
 -3--3----3--3----3--3----3--3----3--3----3--3-----3---3--3------|
 ---------------------------------------------------2---2-2------|
 -0--0----------------------------0--0--------------------0------|
 ---------0--0----2--2----0--0------------0--0----2---0----------|
 ----------------------------------------------------------------|


3rd Chorus:
|-0---------------0---------------------------0---0|
|-3---------------3---------------3-------3-----3-3|
|-2---------------2-------------------2----------22|
|-0---------------0-------------------------------0|
|-----------------4---------------2-------0--------|
|--------------------------------------------------|

Verse 3x
1st Chorus
solo (or verse)
verse 2x
2nd Chorus
Bridge
3rd Chorus

| /  slide up
| \  slide down
| h  hammer-on
| p  pull-off
| ~  vibrato
| +  harmonic
| x  Mute note
============================================================================
Tap to rate this tab
# A B C D E F G H I J K L M N O P Q R S T U V W X Y Z