Song name
# A B C D E F G H I J K L M N O P Q R S T U V W X Y Z

Dear Juliet - Lullaby tab

Song title:: LULLABY
By:: DEAR JULIET
*Standard Tuning*

For the Intro and Verses:

e|---------------------------------------------------|
B|-------3-----------3-----------3-----------3-------|
G|---0-----0-----2-----2-----0-----0-----2-----2-----|
D|-----0-----------0-----------2-----------0---------|
A|---------------------------------------------------|
E|---3-----------2-----------0-----------2-----------|

e|---------------------------------------------------|
B|-------3-----------3-----------1-----------3-------|
G|---0-----0-----0-----0-----0-----0-----2-----2-----|
D|-----0-----------0-----------0-----------0---------|
A|---3-----------2-----------0-----------------------|
E|---------------------------------------2-----------|

VERSE1:
You can rest easy tonight
Everything is gonna be alright, I promise
Go to sleep and dream of me tonight
Everything may not be perfect but at least we try

|----------------------------|
|-------1-----1-----2--------|
|-----0-----0-----0----------|
|----------------------------|>>this would be after "but at least we try" 
|---0-----0-----0------------|    and "that I thought of you"
|----------------------------|

CHORUS:
                   Cadd9             G
So tonight, sweet dreams and sleep tight

            Em
I've been trying so hard

              D/F#m
Can't get you out of my mind

        Cadd9
And if this is how it has to be

        G
just promise you won't forget me

     Em        D/F#m          Cadd9
and I'll leave you with this lullaby

 Cm
tonight

**play the tab for the intro**
**same tab for the 2nd verse**

VERSE2:

I know that this hurts you
It hurts me too
I wish there was something I could do
To make it easier for you
Sometimes it's tough 
too soon to call it love
But I wanted to
Yeah, I wanted to
But it's too late now to say
all the wonderful things 
That I thought of you


CHORUS:
                   Cadd9             G
So tonight, sweet dreams and sleep tight

            Em
I've been trying so hard

              D/F#m
Can't get you out of my mind

        Cadd9
And if this is how it has to be

        G
just promise you won't forget me

     Em        D/F#m          Cadd9
and I'll leave you with this lullaby

 Cm
tonight

e|---------------------------------------------------|
B|-------3-----------3-----------3-----------3-------|
G|---0-----0-----2-----2-----0-----0-----2-----2-----|
D|-----0-----------0-----------2-----------0---------|
A|---------------------------------------------------|
E|---3-----------2-----------0-----------2-----------|

e|---------------------------------------------------|
B|-------3-----------3-----------1-------------------|
G|---0-----0-----0-----0-----0-----0-----------------|
D|-----0-----------0-----------0---------------------|
A|---3-----------2-----------0-----------------------|
E|---------------------------------------2-----------|


*********************************************************************

   Cadd9     G      Em     D/F#m    Cm
e|---3---|---3---|---3---|---3---|---3---|
B|---3---|---3---|---3---|---3---|---4---|
G|---0---|---0---|---0---|---2---|---5---|
D|---2---|---0---|---2---|---0---|---5---|
A|---3---|---2---|---2---|---0---|---3---|
E|---x---|---3---|---0---|---2---|---x---|

*********************************************************************

:::::::::::::::::::::::::::::::::::::::::::::::::::::::::::::::::::::
  I made this other version of the tab of this song because i can't 
find a better version for it...
  I'm not so sure if this is the right tablature for this but this is
how i play it.
  *please rate!:D*
 
**thanks to WeTheFusion for the lyrics**
 if there are things that aren't right with the tab/chords/whatever
send to my account : gp_bueza@yahoo.com

::by: amiappreciated ::::::::::::::::::::::::::::::::::::::::::::::::
Tap to rate this tab
# A B C D E F G H I J K L M N O P Q R S T U V W X Y Z