Song name
# A B C D E F G H I J K L M N O P Q R S T U V W X Y Z

Dear Landlord - Park Bench tab

Dear Landlord is a pop-punk band from American Midwest. This is their Myspace:

http://www.myspace.com/letslynchthedearlandlord

They are signed to No Idea Records and released a LP "Dream Homes". Add them!

-------------------------------------------------------------------------------
			     PARK BENCH by Dear Landlord
-------------------------------------------------------------------------------

Very simple song :)

Intro

Rhythm guitar just plays D power-chord palm-muted during the intro
Lead guitar plays this:
                                                        (and so on)
E|--------------------------|----------------------------------------|
B|--------------------------|-----7-----7-----7-----7----------------|
G|--------------------------|----7-797-7-797-7-797-7-797-------------|
D|--------------------------|---------9-----9-----9-----9------------|
A|-5------------------------|----------------------------------------|
E|--------------------------|----------------------------------------|

Verse/Chorus

Rhythm guitar:
                   ,-- Lead joins here with the riff from the intro
                   V        ,(play each chord 16x starting from here)
E|--------------------------|----------------------------------------|
B|--------------------------|----------------------------------------|
G|-7---7-------7---7---7----|--7---7-------7-------7-------9---------|
D|-7---7---5---7---7---7---5|5-7-7-7-7-9-5-7-7-9-5-7-7-9-5-9-7-9-5---|
A|-5---5---5---5---5---5---5|5-5-7-5-7-9-5-5-7-9-5-5-7-9-5-7-7-9-5---|
E|---------3---------------3|3---5---5-7-3---5-7-3---5-7-3---5-7-3---|

Then play the riff from the intro until the end of the song.
Tap to rate this tab
 
# A B C D E F G H I J K L M N O P Q R S T U V W X Y Z