Song name
# A B C D E F G H I J K L M N O P Q R S T U V W X Y Z

Dear Landlord - Whiskey And Records tab

Dear Landlord - Whiskey and Records

1."The world is dying" / whoa whoa
E|----------------------------------------------------------|
B|----------------------------------------------------------|
G|-44444444-------------------------------------------------|
D|-44444444-44444444-66666666-22222222----------------------|
A|-22222222-44444444-66666666-22222222----------------------|
E|----------22222222-44444444-00000000----------------------|

2."Can't even come close"
E|----------------------------------------------------------|
B|----------------------------------------------------------|
G|-4--------4--------4--------4-----------------------------|
D|-4--4--2--4--4--2--4--4--2--4--4--2-----------------------|
A|-2--4--2--2--4--2--2--4--2--2--4--2-----------------------|
E|----2--0-----2--0-----2--0-----2--0(hold)-----------------|

3."Whiskey and records again"
E|----------------------------------------------------------|
B|----------------------------------------------------------|
G|-4--------4--------4--------4-----------------------------|
D|-4--4--2--4--4--2--4--4--2--4-----------------------------|
A|-2--4--2--2--4--2--2--4--2--2(hold)-----------------------|
E|----2--0-----2--0-----2--0--------------------------------|

Sequence:
bass intro
1 (x2) - with palm muting
2
1 (x3)
2
1 (x3)
2
1 (x3)
3
Tap to rate this tab
# A B C D E F G H I J K L M N O P Q R S T U V W X Y Z