Song name
# A B C D E F G H I J K L M N O P Q R S T U V W X Y Z

Dear Reader - Fox Take Your Chances tab

Fox(take your chances) by Dear Reader

Capo 6th fret (so all is relative to 6th fret i.e. 0=6)


this just the basic stuff… guess some notes are missing –
just listen to the song and enjoy playing it..

clear with slight distortion/cry

INTRO

e-------------------------------------------------------------|
B------------------------1-----------------------------0------|
G---------0----------0-----0-----------0-----------------0----|
D-------2----------2---2-----2--------------------0--------0--|
A-----0------0-2-3------------------2-----------2---2---------|
E---------------------------------0------0-2-3----------------|

e--------------------------------------------------------------|
B------------------------1-------------------------------------|
G---------0----------0-----0---------0-4-2-0------4--------4---|
D-------2----------2---2-----2------------------4---4----4---4-|
A-----0------0-2-3---------------------------------------------|
E---------------------------------3----------2--------2--------|


Verse same as Intro or pick a bit more

e-------------------------------------------------------------|
B------------------------1-----------------------------0------|
G--------0----0------0-----0---------0-------------------0----|
D-------2-2--2-2---2---2-----2-----------0--------0--------0--|
A-----0-----2----3------------------2---2-------2---2---------|
E---------------------------------0----2-----3----------------|

e--------------------------------------------------------------|
B------------------------1-------------------------------------|
G---------0----------0-----0---------0-4-2-0------4--------4---|
D-------2----------2---2-----2------------------4---4----4---4-|
A-----0------0-2-3---------------------------------------------|
E---------------------------------3----------2--------2--------|


Chorus

e-------------------------------------------------------------|
B--------------------------------1-----1----0-----------------|
G----------4h5-----2h4-4-2-0---2-----2-----2------------------|
D-------------------------------------------------------------|
A----------------------------3-----3------3-------------------|
E---0-----------2---------------------------------------------|

Repeat and finish with

e--------------------------------------------------------------|
B--------------------------------1-----------------------------|
G----------4h5-----2h4-4-2-0---2-----2p0----0--0--0--0---------|
D--------------------------------------------------------------|
A----------------------------3-----2-------2--2--2--2----------|
E---0-----------2----------------------------------------------|

Verse /2nd chorus / bridge / 3rd chorus / outro


Bridge/outro

e-----0--------------------------------|
B-------0-0-0---0-1-0-0---1----0-------|
G-------------2---------0---0----0---0-|
D----------------------------------4---|
A-----2--------------------------------|
E--------------------------------------|

You may end on D-2-
Tap to rate this tab
# A B C D E F G H I J K L M N O P Q R S T U V W X Y Z