Guitaretab - guitar tabs
Song name
# A B C D E F G H I J K L M N O P Q R S T U V W X Y Z

Dear Whoever - Battlefield Radio tab

			     Battlefield Radio  Dear Whoever
----------------------------------------------------------------------------
Tabbed by: Billybusa
Email: Hayabusa__FMW@hotmail.com

Tuning: Drop D

e|-----------------------------------------------------------|
B|-----------------------------------------------------------|
G|-----------------------------------------------------------|Guitar 1 and 2
D|-----------------------------------------------------------|
A|-0-0-0-0-0-0000-0-0----------0-0--------0-0---------0-0----|
D|-0-0-0-0-0-0000-0-0----------0-0--------0-0---------0-0----|
   --------------------------------------------------------->PM
 
e|-----------------------------------------------------------|
B|-----------------------------------------------------------|
G|-----------------------------------------------------------|Guitar 1 and 2
D|-----------------------------------------------------------|
A|-0-0-0-------0-0-------------------------------------------|
D|-0-0-0-------0-0-------------------------------------------|
   . .         . .
e|-----------------------------------------------------------|
B|-----------------------------------------------------------|
G|-----------------------------------------------------------|
D|-12-12-12-12-12-12-12-12-14-14-14-14-11-11-11-11-----------|Guitar 1
A|-----------------------------------------------------------|
D|-----------------------------------------------------------|

                    At the same time Guitar 2 goes:
e|-----------------------------------------------------------|
B|-----------------------------------------------------------|
G|-12-12-12-12-12-12-12-12-14-14-14-14-11-11-11-11-----------|
D|-----------------------------------------------------------|
A|-----------------------------------------------------------|
D|-----------------------------------------------------------|

e|-----------------------------------------------------------|
B|-----------------------------------------------------------|
G|-----------------------------------------------------------|
D|-----------------------------------------------------------|Guitar 1 and 2
A|-0-0-0-0-0-0000-0-0----------0-0--------0-0--------0-0-----|
D|-0-0-0-0-0-0000-0-0----------0-0--------0-0--------0-0-----|
 ------------------------------------------------------------> PM

e|-----------------------------------------------------------|
B|-----------------------------------------------------------|
G|-----------------------------------------------------------|Guitar 1 and 2
D|-----------------------------------------------------------|
A|-0-0-0-------0-0-------------------------------------------|
D|-0-0-0-------0-0-------------------------------------------|
   . .         . .
[ Tab from: http://www.guitaretab.com/d/dear-whoever/103119.html ]
e|-----------------------------------------------------------|
B|-----------------------------------------------------------|
G|--------------3-------------------2------------------------|
D|-0---0---0----3------0---0---0----2------------------------|Guitar 1 and 2
A|-0---0---0-----------0---0---0-----------------------------|
D|-----------------------------------------------------------|
   .   .   .           .   .   .
e|-----------------------------------------------------------|
B|-----------------------------------------------------------|
G|-----------------------------------------------------------|
D|-----------------------------------------------------------|Guitar 1 and 2
A|-0-000-0-0--0-0-0------------------------------------------|
D|-0-000-0-0--0-0-0------------------------------------------|
  --------------------------> PM

e|-----------------------------------------------------------|
B|----------------------------------7----9----7---9----------|
G|----------------------------------10---13---10--13---------|  
D|-----------------------------------------------------------|Guitar 1 and 2
A|-0-000-0-0-0---0---0---0-----------------------------------|
D|-0-000-0-0-0---0---0---0-----------------------------------|
  ---------------------------> PM

|------------------------------------------------------------|
B|-----------------------------------------------------------|
G|-----------------------------------------------------------|
D|-----------------------------------------------------------|Guitar 1 and 2
A|-0-000-0-0--0-0-0------------------------------------------|
D|-0-000-0-0--0-0-0------------------------------------------|
  ---------------------------> PM

e|-----------------------------------------------------------|
B|----------------------------------7---9---7---9------------|
G|----------------------------------10--13--10--13-----------|  
D|-----------------------------------------------------------|Guitar 1 and 2
A|-0-000-0-0-0---0---0---0-----------------------------------|
D|-0-000-0-0-0---0---0---0-----------------------------------|
    -------------------------> PM

|------------------------------------------------------------|
B|-----------------------------------------------------------|
G|-----------------------------------------------------------|
D|-----------------------------------------------------------|Guitar 1 and 2
A|-0-000-0-0--0-0-0------------------------------------------|
D|-0-000-0-0--0-0-0------------------------------------------|
  ---------------------------> PM

e|-----------------------------------------------------------|
B|----------------------------------7---9---7---9------------|
G|----------------------------------10--13--10--13-----------|  
D|-----------------------------------------------------------|Guitar 1 and 2
A|-0-000-0-0-0---0---0---0-----------------------------------|
D|-0-000-0-0-0---0---0---0-----------------------------------|
    -------------------------> PM


| /  slide up
| \  slide down
| h  hammer-on
| p  pull-off
| ~  vibrato
| +  harmonic
| x  Mute note
============================================================================
Related for Battlefield Radio tab