Song name
# A B C D E F G H I J K L M N O P Q R S T U V W X Y Z

Dear Whoever - Security Without Doubts tab

-------------------------------------------------------------------------------
                             SECURITY WITHOUT DOUBTS - DEAR WHOEVER
-------------------------------------------------------------------------------
Tabbed by: Shaun        
E-mail:shaungarnett@hotmail.co.uk

Tuning: standard

e|---------------------------------------------------------------------------|
B|-------6-------6-------6-------6-------6-------6------6666--6666-----------|
G|-----6---6---6---6---6---6---6---6---6---6---6---6----6666--6666-----------|
D|-------------------4----------------------------------4444--4444-----------|
A|---4-------4---------------6-------4-------4----------4444--4444-----------|
E|---------------------------------------------------------------------------|
Tap to rate this tab
# A B C D E F G H I J K L M N O P Q R S T U V W X Y Z